0
SECTION
2
HEADER
9
$INSUNITS
70
4
9
$ACADVER
1
AC1014
9
$HANDSEED
5
FFFF
0
ENDSEC
0
SECTION
2
TABLES
0
TABLE
2
VPORT
5
8
100
AcDbSymbolTable
0
ENDTAB
0
TABLE
2
LTYPE
5
5
100
AcDbSymbolTable
0
LTYPE
5
14
100
AcDbSymbolTableRecord
100
AcDbLinetypeTableRecord
2
BYBLOCK
70
0
0
LTYPE
5
15
100
AcDbSymbolTableRecord
100
AcDbLinetypeTableRecord
2
BYLAYER
70
0
0
ENDTAB
0
TABLE
2
LAYER
5
2
100
AcDbSymbolTable
70
2
0
LAYER
5
50
100
AcDbSymbolTableRecord
100
AcDbLayerTableRecord
2
0
70
0
6
CONTINUOUS
0
ENDTAB
0
TABLE
2
STYLE
5
3
100
AcDbSymbolTable
70
1
0
STYLE
5
11
100
AcDbSymbolTableRecord
100
AcDbTextStyleTableRecord
2
STANDARD
70
0
0
ENDTAB
0
TABLE
2
VIEW
5
6
100
AcDbSymbolTable
70
0
0
ENDTAB
0
TABLE
2
UCS
5
7
100
AcDbSymbolTable
70
0
0
ENDTAB
0
TABLE
2
APPID
5
9
100
AcDbSymbolTable
70
2
0
APPID
5
12
100
AcDbSymbolTableRecord
100
AcDbRegAppTableRecord
2
ACAD
70
0
0
ENDTAB
0
TABLE
2
DIMSTYLE
5
A
100
AcDbSymbolTable
70
1
0
ENDTAB
0
TABLE
2
BLOCK_RECORD
5
1
100
AcDbSymbolTable
70
1
0
BLOCK_RECORD
5
1F
100
AcDbSymbolTableRecord
100
AcDbBlockTableRecord
2
*MODEL_SPACE
0
BLOCK_RECORD
5
1B
100
AcDbSymbolTableRecord
100
AcDbBlockTableRecord
2
*PAPER_SPACE
0
ENDTAB
0
ENDSEC
0
SECTION
2
BLOCKS
0
BLOCK
5
20
100
AcDbEntity
100
AcDbBlockBegin
2
*MODEL_SPACE
0
ENDBLK
5
21
100
AcDbEntity
100
AcDbBlockEnd
0
BLOCK
5
1C
100
AcDbEntity
100
AcDbBlockBegin
2
*PAPER_SPACE
0
ENDBLK
5
1D
100
AcDbEntity
100
AcDbBlockEnd
0
ENDSEC
0
SECTION
2
ENTITIES
0
LINE
5
100
100
AcDbEntity
8
0
100
AcDbLine
10
-524.48054301941534
20
-378.52355256878093
30
0
11
-527.68054301941538
21
-378.52334810712756
31
0
0
LINE
5
101
100
AcDbEntity
8
0
100
AcDbLine
10
-524.62745912831826
20
-404.52384199914638
30
0
11
-527.68038882573182
21
-404.52373146204275
31
0
0
LINE
5
102
100
AcDbEntity
8
0
100
AcDbLine
10
-8.5197339636613911
20
-417.32310641403922
30
0
11
-5.4805760848144836
21
-417.32313333961167
31
0
0
LINE
5
103
100
AcDbEntity
8
0
100
AcDbLine
10
-527.68038882573182
20
-404.52373146204275
30
0
11
-527.68023390657686
21
-391.3237314620427
31
0
0
LINE
5
104
100
AcDbEntity
8
0
100
AcDbLine
10
-5.480582773901741
20
-430.52308018277392
30
0
11
-8.6806534935113255
21
-430.52308018277392
31
0
0
LINE
5
105
100
AcDbEntity
8
0
100
AcDbLine
10
-5.4805760848144836
20
-417.32313333961167
30
0
11
-5.480582773901741
21
-430.52308018277392
31
0
0
LINE
5
106
100
AcDbEntity
8
0
100
AcDbLine
10
-429.98058071210636
20
-487.02373146204258
30
0
11
-443.18054301941544
21
-487.02256954557816
31
0
0
LINE
5
107
100
AcDbEntity
8
0
100
AcDbLine
10
-443.18054301941544
20
-487.02256954557816
30
0
11
-443.18054301941527
21
-483.82347435170948
31
0
0
LINE
5
108
100
AcDbEntity
8
0
100
AcDbLine
10
-5.4805760848144836
20
-463.7729258485561
30
0
11
-8.6806534935113255
21
-463.7738377707737
31
0
0
LINE
5
109
100
AcDbEntity
8
0
100
AcDbLine
10
-338.18056060269754
20
-487.02185205882404
30
0
11
-338.1805606026976
21
-483.82347435170738
31
0
0
LINE
5
110
100
AcDbEntity
8
0
100
AcDbLine
10
-324.98043455975647
20
-483.82347435170738
30
0
11
-324.98095850071093
21
-487.02373146204047
31
0
0
LINE
5
111
100
AcDbEntity
8
0
100
AcDbLine
10
-503.43054301941527
20
-334.82373253475311
30
0
11
-503.43054301941521
21
-338.02373253475315
31
0
0
LINE
5
112
100
AcDbEntity
8
0
100
AcDbLine
10
-527.68054301941538
20
-378.52334810712756
30
0
11
-527.68047448803611
21
-358.07373146204276
31
0
0
LINE
5
113
100
AcDbEntity
8
0
100
AcDbLine
10
-429.98056060269761
20
-483.82347435170948
30
0
11
-429.98058071210636
21
-487.02373146204258
31
0
0
LINE
5
114
100
AcDbEntity
8
0
100
AcDbLine
10
-524.48054301941534
20
-358.07367717104103
30
0
11
-524.4805430632432
21
-338.02373253475315
31
0
0
LINE
5
115
100
AcDbEntity
8
0
100
AcDbLine
10
-8.5207205337697722
20
-404.52317920524558
30
0
11
-8.5197339636613911
21
-417.32310641403922
31
0
0
LINE
5
116
100
AcDbEntity
8
0
100
AcDbLine
10
-527.68047448803611
20
-358.07373146204276
30
0
11
-524.48054301941534
21
-358.07367717104103
31
0
0
LINE
5
117
100
AcDbEntity
8
0
100
AcDbLine
10
-8.6806534935113255
20
-463.7738377707737
30
0
11
-8.6806534935113255
21
-483.82282307244077
31
0
0
LINE
5
118
100
AcDbEntity
8
0
100
AcDbLine
10
-312.18024903109881
20
-487.02373146204047
30
0
11
-312.18078791300007
21
-483.82347435170738
31
0
0
LINE
5
119
100
AcDbEntity
8
0
100
AcDbLine
10
-8.6806534935113255
20
-443.3230753014405
30
0
11
-5.4805954503937038
21
-443.32308018277394
31
0
0
LINE
5
120
100
AcDbEntity
8
0
100
AcDbLine
10
-8.6806534935113255
20
-430.52308018277392
30
0
11
-8.6806534935113255
21
-443.3230753014405
31
0
0
LINE
5
121
100
AcDbEntity
8
0
100
AcDbLine
10
-481.98056191542327
20
-338.02373253475315
30
0
11
-469.18061624438542
21
-338.02373253475315
31
0
0
LINE
5
122
100
AcDbEntity
8
0
100
AcDbLine
10
-469.18054301941538
20
-334.82383857591424
30
0
11
-455.98054301941534
21
-334.82411747189053
31
0
0
LINE
5
123
100
AcDbEntity
8
0
100
AcDbLine
10
-77.179791399857351
20
-483.82282307244077
30
0
11
-89.980576084814373
21
-483.82282307244077
31
0
0
LINE
5
124
100
AcDbEntity
8
0
100
AcDbLine
10
-89.980576084814373
20
-483.82282307244077
30
0
11
-89.980576084814444
21
-487.02305847276625
31
0
0
LINE
5
125
100
AcDbEntity
8
0
100
AcDbLine
10
-77.17889446263419
20
-487.02308018277387
30
0
11
-77.179791399857351
21
-483.82282307244077
31
0
0
LINE
5
126
100
AcDbEntity
8
0
100
AcDbLine
10
-29.730576084814455
20
-483.82282307244077
30
0
11
-29.730576084814455
21
-487.0228230724407
31
0
0
LINE
5
127
100
AcDbEntity
8
0
100
AcDbLine
10
-503.43054301941521
20
-338.02373253475315
30
0
11
-503.43054301941527
21
-334.82373253475311
31
0
0
LINE
5
128
100
AcDbEntity
8
0
100
AcDbLine
10
-63.980626173130219
20
-483.82282307244077
30
0
11
-63.980683428550037
21
-487.02308018277387
31
0
0
LINE
5
129
100
AcDbEntity
8
0
100
AcDbLine
10
-455.98020159251661
20
-338.02373253475315
30
0
11
-443.18054301941527
21
-338.02373253475315
31
0
0
LINE
5
130
100
AcDbEntity
8
0
100
AcDbLine
10
-481.98058351112525
20
-334.82373165575939
30
0
11
-481.98056191542327
21
-338.02373253475315
31
0
0
LINE
5
131
100
AcDbEntity
8
0
100
AcDbLine
10
-8.6806534935113255
20
-483.82282307244077
30
0
11
-29.730576084814455
21
-483.82282307244077
31
0
0
LINE
5
132
100
AcDbEntity
8
0
100
AcDbLine
10
-29.730576084814455
20
-487.0228230724407
30
0
11
-29.730576084814455
21
-483.82282307244077
31
0
0
LINE
5
133
100
AcDbEntity
8
0
100
AcDbLine
10
-5.4805954503937038
20
-443.32308018277394
30
0
11
-5.4805760848144836
21
-463.7729258485561
31
0
0
LINE
5
134
100
AcDbEntity
8
0
100
AcDbLine
10
-524.48054301941534
20
-338.02373253475315
30
0
11
-503.43054301941521
21
-338.02373253475315
31
0
0
LINE
5
135
100
AcDbEntity
8
0
100
AcDbLine
10
-51.180576084814419
20
-487.0228230724407
30
0
11
-51.180730233853694
21
-483.82282307244077
31
0
0
LINE
5
136
100
AcDbEntity
8
0
100
AcDbLine
10
-29.730576084814455
20
-487.0228230724407
30
0
11
-51.180576084814419
21
-487.0228230724407
31
0
0
LINE
5
137
100
AcDbEntity
8
0
100
AcDbLine
10
-455.98054301941534
20
-334.82411747189053
30
0
11
-455.98020159251661
21
-338.02373253475315
31
0
0
LINE
5
138
100
AcDbEntity
8
0
100
AcDbLine
10
-469.18061624438542
20
-338.02373253475315
30
0
11
-469.18054301941538
21
-334.82383857591424
31
0
0
LINE
5
139
100
AcDbEntity
8
0
100
AcDbLine
10
-503.43054301941527
20
-334.82373253475311
30
0
11
-481.98058351112525
21
-334.82373165575939
31
0
0
LINE
5
140
100
AcDbEntity
8
0
100
AcDbLine
10
-63.980683428550037
20
-487.02308018277387
30
0
11
-77.17889446263419
21
-487.02308018277387
31
0
0
LINE
5
141
100
AcDbEntity
8
0
100
AcDbLine
10
-51.180730233853694
20
-483.82282307244077
30
0
11
-63.980626173130219
21
-483.82282307244077
31
0
0
LINE
5
142
100
AcDbEntity
8
0
100
AcDbLine
10
-272.98056060269766
20
-483.82347435170738
30
0
11
-272.98056060269766
21
-487.02267234995611
31
0
0
LINE
5
143
100
AcDbEntity
8
0
100
AcDbLine
10
-234.18056060269777
20
-483.82347435170738
30
0
11
-246.98064475678427
21
-483.82347435170738
31
0
0
LINE
5
144
100
AcDbEntity
8
0
100
AcDbLine
10
-246.9807409538941
20
-487.02373146204047
30
0
11
-260.18056060269771
21
-487.02368621624692
31
0
0
LINE
5
145
100
AcDbEntity
8
0
100
AcDbLine
10
-220.97061774497845
20
-487.02373146204047
30
0
11
-234.18056060269771
21
-487.02347443651996
31
0
0
LINE
5
146
100
AcDbEntity
8
0
100
AcDbLine
10
-260.18049878256596
20
-338.02373253475105
30
0
11
-260.18042808570868
21
-334.82373146204066
31
0
0
LINE
5
147
100
AcDbEntity
8
0
100
AcDbLine
10
-220.98130189750555
20
-487.02373146204047
30
0
11
-220.97061774497845
21
-487.02373146204047
31
0
0
LINE
5
148
100
AcDbEntity
8
0
100
AcDbLine
10
-272.98070269045479
20
-338.02373253475105
30
0
11
-260.18049878256596
21
-338.02373253475105
31
0
0
LINE
5
149
100
AcDbEntity
8
0
100
AcDbLine
10
-103.18046865966024
20
-487.02308018277387
30
0
11
-103.18052595767958
21
-483.82282307244077
31
0
0
LINE
5
150
100
AcDbEntity
8
0
100
AcDbLine
10
-234.18056060269771
20
-487.02347443651996
30
0
11
-234.18056060269777
21
-483.82347435170738
31
0
0
LINE
5
151
100
AcDbEntity
8
0
100
AcDbLine
10
-260.18056060269771
20
-487.02368621624692
30
0
11
-260.18056060269771
21
-483.82347435170738
31
0
0
LINE
5
152
100
AcDbEntity
8
0
100
AcDbLine
10
-260.18042808570868
20
-334.82373146204066
30
0
11
-246.98056060269764
21
-334.82515212287694
31
0
0
LINE
5
153
100
AcDbEntity
8
0
100
AcDbLine
10
-272.98124085551353
20
-334.82373146204066
30
0
11
-272.98070269045479
21
-338.02373253475105
31
0
0
LINE
5
154
100
AcDbEntity
8
0
100
AcDbLine
10
-89.980576084814444
20
-487.02305847276625
30
0
11
-103.18046865966024
21
-487.02308018277387
31
0
0
LINE
5
155
100
AcDbEntity
8
0
100
AcDbLine
10
-220.98059377481667
20
-334.82373146204066
30
0
11
-220.98057608301403
21
-338.02373253475105
31
0
0
LINE
5
156
100
AcDbEntity
8
0
100
AcDbLine
10
-234.18056060269777
20
-334.82373387544249
30
0
11
-220.98059377481667
21
-334.82373146204066
31
0
0
LINE
5
157
100
AcDbEntity
8
0
100
AcDbLine
10
-286.18045196587212
20
-338.02373253475105
30
0
11
-286.17991992258249
21
-334.82373146204066
31
0
0
LINE
5
158
100
AcDbEntity
8
0
100
AcDbLine
10
-246.98056060269764
20
-334.82515212287694
30
0
11
-246.98054964271398
21
-338.02373253475105
31
0
0
LINE
5
159
100
AcDbEntity
8
0
100
AcDbLine
10
-260.18056060269771
20
-483.82347435170738
30
0
11
-272.98056060269766
21
-483.82347435170738
31
0
0
LINE
5
160
100
AcDbEntity
8
0
100
AcDbLine
10
-286.17991992258249
20
-334.82373146204066
30
0
11
-272.98124085551353
21
-334.82373146204066
31
0
0
LINE
5
161
100
AcDbEntity
8
0
100
AcDbLine
10
-246.98064475678427
20
-483.82347435170738
30
0
11
-246.9807409538941
21
-487.02373146204047
31
0
0
LINE
5
162
100
AcDbEntity
8
0
100
AcDbLine
10
-246.98054964271398
20
-338.02373253475105
30
0
11
-234.18056060269777
21
-338.02373253475105
31
0
0
LINE
5
163
100
AcDbEntity
8
0
100
AcDbLine
10
-103.18057608481438
20
-334.82319826619113
30
0
11
-89.980576084814373
21
-334.82344617084243
31
0
0
LINE
5
164
100
AcDbEntity
8
0
100
AcDbLine
10
-220.97592102870337
20
-483.82347435170738
30
0
11
-220.97061774497845
21
-487.02373146204047
31
0
0
LINE
5
165
100
AcDbEntity
8
0
100
AcDbLine
10
-286.18054585653226
20
-487.02373146204047
30
0
11
-286.18055372359811
21
-483.82347435170738
31
0
0
LINE
5
166
100
AcDbEntity
8
0
100
AcDbLine
10
-272.98056060269766
20
-487.02267234995611
30
0
11
-286.18054585653226
21
-487.02373146204047
31
0
0
LINE
5
167
100
AcDbEntity
8
0
100
AcDbLine
10
-103.18057608481438
20
-338.02308125548444
30
0
11
-103.18057608481438
21
-334.82319826619113
31
0
0
LINE
5
168
100
AcDbEntity
8
0
100
AcDbLine
10
-234.18056060269777
20
-338.02373253475105
30
0
11
-234.18056060269777
21
-334.82373387544249
31
0
0
LINE
5
169
100
AcDbEntity
8
0
100
AcDbLine
10
-77.180576084814504
20
-338.02308125548439
30
0
11
-77.180576084814504
21
-334.82348685246512
31
0
0
LINE
5
170
100
AcDbEntity
8
0
100
AcDbLine
10
-338.1805606026976
20
-338.02373253475105
30
0
11
-338.1805606026976
21
-334.82456877050828
31
0
0
LINE
5
171
100
AcDbEntity
8
0
100
AcDbLine
10
-8.6806534935113255
20
-338.02308125548439
30
0
11
-8.6806534935113255
21
-358.0730159859778
31
0
0
LINE
5
172
100
AcDbEntity
8
0
100
AcDbLine
10
-429.98054301941545
20
-334.82383852112594
30
0
11
-429.98054301941551
21
-338.02373253475315
31
0
0
LINE
5
173
100
AcDbEntity
8
0
100
AcDbLine
10
-324.98095850071093
20
-487.02373146204047
30
0
11
-338.18056060269754
21
-487.02185205882404
31
0
0
LINE
5
174
100
AcDbEntity
8
0
100
AcDbLine
10
-298.98071146820246
20
-334.82373146204066
30
0
11
-298.98009464620765
21
-338.02373253475105
31
0
0
LINE
5
175
100
AcDbEntity
8
0
100
AcDbLine
10
-312.18057554463337
20
-338.02373253475105
30
0
11
-312.1805606026976
21
-334.82519139633871
31
0
0
LINE
5
176
100
AcDbEntity
8
0
100
AcDbLine
10
-89.980576084814373
20
-334.82344617084243
30
0
11
-89.980576084814444
21
-338.02308125548444
31
0
0
LINE
5
177
100
AcDbEntity
8
0
100
AcDbLine
10
-312.1805606026976
20
-334.82519139633871
30
0
11
-298.98071146820246
21
-334.82373146204066
31
0
0
LINE
5
178
100
AcDbEntity
8
0
100
AcDbLine
10
-298.98103189406334
20
-483.82347435170738
30
0
11
-298.98169865551233
21
-487.02373146204047
31
0
0
LINE
5
179
100
AcDbEntity
8
0
100
AcDbLine
10
-298.98169865551233
20
-487.02373146204047
30
0
11
-312.18024903109881
21
-487.02373146204047
31
0
0
LINE
5
180
100
AcDbEntity
8
0
100
AcDbLine
10
-443.18054301941538
20
-334.8241175757675
30
0
11
-429.98054301941545
21
-334.82383852112594
31
0
0
LINE
5
181
100
AcDbEntity
8
0
100
AcDbLine
10
-8.6806534935113255
20
-358.0730159859778
30
0
11
-5.4806534935113937
21
-358.07308018277405
31
0
0
LINE
5
182
100
AcDbEntity
8
0
100
AcDbLine
10
-524.48054301941534
20
-391.32373146204282
30
0
11
-524.48054301941534
21
-378.52355256878093
31
0
0
LINE
5
183
100
AcDbEntity
8
0
100
AcDbLine
10
-312.18078791300007
20
-483.82347435170738
30
0
11
-324.98043455975647
21
-483.82347435170738
31
0
0
LINE
5
184
100
AcDbEntity
8
0
100
AcDbLine
10
-5.4805760848144836
20
-378.52265833903999
30
0
11
-8.6806534935113255
21
-378.52288333459205
31
0
0
LINE
5
185
100
AcDbEntity
8
0
100
AcDbLine
10
-29.730576084814455
20
-338.02308125548439
30
0
11
-8.6806534935113255
21
-338.02308125548439
31
0
0
LINE
5
186
100
AcDbEntity
8
0
100
AcDbLine
10
-5.4806534935113937
20
-358.07308018277405
30
0
11
-8.6806534935113255
21
-358.07308018277405
31
0
0
LINE
5
187
100
AcDbEntity
8
0
100
AcDbLine
10
-324.98056060269761
20
-334.82373252926857
30
0
11
-324.97946751886002
21
-338.02373253475105
31
0
0
LINE
5
188
100
AcDbEntity
8
0
100
AcDbLine
10
-51.180562579773493
20
-338.02308125548439
30
0
11
-51.180547145282191
21
-334.82308018277399
31
0
0
LINE
5
189
100
AcDbEntity
8
0
100
AcDbLine
10
-89.980576084814444
20
-338.02308125548444
30
0
11
-77.180576084814504
21
-338.02308125548439
31
0
0
LINE
5
190
100
AcDbEntity
8
0
100
AcDbLine
10
-298.98009464620765
20
-338.02373253475105
30
0
11
-286.18045196587212
21
-338.02373253475105
31
0
0
LINE
5
191
100
AcDbEntity
8
0
100
AcDbLine
10
-5.4807176452836437
20
-404.52308018277398
30
0
11
-8.5207205337697722
21
-404.52317920524558
31
0
0
LINE
5
192
100
AcDbEntity
8
0
100
AcDbLine
10
-5.4806534935113937
20
-358.07308018277405
30
0
11
-5.4805760848144836
21
-378.52265833903999
31
0
0
LINE
5
193
100
AcDbEntity
8
0
100
AcDbLine
10
-5.4805760848144836
20
-391.32352527157116
30
0
11
-5.4807176452836437
21
-404.52308018277398
31
0
0
LINE
5
194
100
AcDbEntity
8
0
100
AcDbLine
10
-8.6806534935113255
20
-391.32328787430163
30
0
11
-5.4805760848144836
21
-391.32352527157116
31
0
0
LINE
5
195
100
AcDbEntity
8
0
100
AcDbLine
10
-8.6806534935113255
20
-378.52288333459205
30
0
11
-8.6806534935113255
21
-391.32328787430163
31
0
0
LINE
5
196
100
AcDbEntity
8
0
100
AcDbLine
10
-443.18054301941527
20
-338.02373253475315
30
0
11
-443.18054301941538
21
-334.8241175757675
31
0
0
LINE
5
197
100
AcDbEntity
8
0
100
AcDbLine
10
-286.18055372359811
20
-483.82347435170738
30
0
11
-298.98103189406334
21
-483.82347435170738
31
0
0
LINE
5
198
100
AcDbEntity
8
0
100
AcDbLine
10
-527.68023390657686
20
-391.3237314620427
30
0
11
-524.48054301941534
21
-391.32373146204282
31
0
0
LINE
5
199
100
AcDbEntity
8
0
100
AcDbLine
10
-324.97946751886002
20
-338.02373253475105
30
0
11
-312.18057554463337
21
-338.02373253475105
31
0
0
LINE
5
200
100
AcDbEntity
8
0
100
AcDbLine
10
-29.730576084814455
20
-334.82308044823662
30
0
11
-29.730576084814455
21
-338.02308125548439
31
0
0
LINE
5
201
100
AcDbEntity
8
0
100
AcDbLine
10
-63.980512043342429
20
-338.02308125548439
30
0
11
-51.180562579773493
21
-338.02308125548439
31
0
0
LINE
5
202
100
AcDbEntity
8
0
100
AcDbLine
10
-63.98057608481443
20
-334.82317680886808
30
0
11
-63.980512043342429
21
-338.02308125548439
31
0
0
LINE
5
203
100
AcDbEntity
8
0
100
AcDbLine
10
-51.180547145282191
20
-334.82308018277399
30
0
11
-29.730576084814455
21
-334.82308044823662
31
0
0
LINE
5
204
100
AcDbEntity
8
0
100
AcDbLine
10
-77.180576084814504
20
-334.82348685246512
30
0
11
-63.98057608481443
21
-334.82317680886808
31
0
0
LINE
5
205
100
AcDbEntity
8
0
100
AcDbLine
10
-338.1805606026976
20
-334.82456877050828
30
0
11
-324.98056060269761
21
-334.82373252926857
31
0
0
LINE
5
206
100
AcDbEntity
8
0
100
AcDbLine
10
-527.68054301941538
20
-463.77360005975623
30
0
11
-524.48054301941534
21
-463.77360005975623
31
0
0
LINE
5
207
100
AcDbEntity
8
0
100
AcDbLine
10
-524.63267304190697
20
-417.32376344384295
30
0
11
-524.62745912831826
21
-404.52384199914638
31
0
0
LINE
5
208
100
AcDbEntity
8
0
100
AcDbLine
10
-524.48054301941534
20
-483.82347435170948
30
0
11
-524.48054301941534
21
-463.773670160405
31
0
0
LINE
5
209
100
AcDbEntity
8
0
100
AcDbLine
10
-527.6805279617505
20
-443.3237314620427
30
0
11
-524.48054301941534
21
-443.32372872549462
31
0
0
LINE
5
210
100
AcDbEntity
8
0
100
AcDbLine
10
-455.98041910008146
20
-487.02373146204258
30
0
11
-469.18041910008156
21
-487.02373146204258
31
0
0
LINE
5
211
100
AcDbEntity
8
0
100
AcDbLine
10
-443.18054301941527
20
-483.82347435170948
30
0
11
-455.98048520525811
21
-483.82347435170948
31
0
0
LINE
5
212
100
AcDbEntity
8
0
100
AcDbLine
10
-527.6805333681657
20
-430.52373146204269
30
0
11
-527.68054301941538
21
-417.32379646351291
31
0
0
LINE
5
213
100
AcDbEntity
8
0
100
AcDbLine
10
-527.68054301941538
20
-463.77360005975623
30
0
11
-527.6805279617505
21
-443.3237314620427
31
0
0
LINE
5
214
100
AcDbEntity
8
0
100
AcDbLine
10
-455.98048520525811
20
-483.82347435170948
30
0
11
-455.98041910008146
21
-487.02373146204258
31
0
0
LINE
5
215
100
AcDbEntity
8
0
100
AcDbLine
10
-481.98054301941539
20
-483.82347435170948
30
0
11
-481.98054301941539
21
-487.0235216557594
31
0
0
LINE
5
216
100
AcDbEntity
8
0
100
AcDbLine
10
-527.68054301941538
20
-417.32379646351291
30
0
11
-524.63267304190697
21
-417.32376344384295
31
0
0
LINE
5
217
100
AcDbEntity
8
0
100
AcDbLine
10
-524.48054301941534
20
-430.52497495142609
30
0
11
-527.6805333681657
21
-430.52373146204269
31
0
0
LINE
5
218
100
AcDbEntity
8
0
100
AcDbLine
10
-481.98054301941539
20
-487.0235216557594
30
0
11
-503.43054301941521
21
-487.02349073436972
31
0
0
LINE
5
219
100
AcDbEntity
8
0
100
AcDbLine
10
-524.48054301941534
20
-443.32372872549462
30
0
11
-524.48054301941534
21
-430.52497495142609
31
0
0
LINE
5
220
100
AcDbEntity
8
0
100
AcDbLine
10
-469.18041910008156
20
-487.02373146204258
30
0
11
-469.18048519676813
21
-483.82347435170948
31
0
0
LINE
5
221
100
AcDbEntity
8
0
100
AcDbLine
10
-503.43054301941521
20
-487.02349073436972
30
0
11
-503.43054301941521
21
-483.82347435170948
31
0
0
LINE
5
222
100
AcDbEntity
8
0
100
AcDbLine
10
-503.43054301941521
20
-483.82347435170948
30
0
11
-524.48054301941534
21
-483.82347435170948
31
0
0
LINE
5
223
100
AcDbEntity
8
0
100
AcDbLine
10
-524.48054301941534
20
-463.773670160405
30
0
11
-527.68054301941538
21
-463.77360005975623
31
0
0
LINE
5
224
100
AcDbEntity
8
0
100
AcDbLine
10
-469.18048519676813
20
-483.82347435170948
30
0
11
-481.98054301941539
21
-483.82347435170948
31
0
0
LINE
5
225
100
AcDbEntity
8
0
100
AcDbLine
10
-524.87627300346685
20
-544.47437974022489
30
0
11
-528.07627300346689
21
-544.47417527857147
31
0
0
LINE
5
226
100
AcDbEntity
8
0
100
AcDbLine
10
-524.87627300346685
20
-570.47467448996633
30
0
11
-528.07611880978345
21
-570.47455863348659
31
0
0
LINE
5
227
100
AcDbEntity
8
0
100
AcDbLine
10
-9.0763658924802115
20
-583.27458343907711
30
0
11
-5.8762884837833607
21
-583.27461179032423
31
0
0
LINE
5
228
100
AcDbEntity
8
0
100
AcDbLine
10
-528.07611880978345
20
-570.47455863348659
30
0
11
-528.07596389062849
21
-557.27455863348655
31
0
0
LINE
5
229
100
AcDbEntity
8
0
100
AcDbLine
10
-5.876295172870627
20
-596.47455863348659
30
0
11
-9.0763658924802115
21
-596.47455863348659
31
0
0
LINE
5
230
100
AcDbEntity
8
0
100
AcDbLine
10
-5.8762884837833607
20
-583.27461179032423
30
0
11
-5.876295172870627
21
-596.47455863348659
31
0
0
LINE
5
231
100
AcDbEntity
8
0
100
AcDbLine
10
-430.37631069615776
20
-652.97455863348637
30
0
11
-443.57627300346684
21
-652.97339671702184
31
0
0
LINE
5
232
100
AcDbEntity
8
0
100
AcDbLine
10
-443.57627300346684
20
-652.97339671702184
30
0
11
-443.57627300346672
21
-649.77430152315355
31
0
0
LINE
5
233
100
AcDbEntity
8
0
100
AcDbLine
10
-5.8762884837833518
20
-629.72440429926883
30
0
11
-9.0763658924802026
21
-629.72531622148631
31
0
0
LINE
5
234
100
AcDbEntity
8
0
100
AcDbLine
10
-338.57627300346684
20
-652.97267923026993
30
0
11
-338.57627300346689
21
-649.77430152315355
31
0
0
LINE
5
235
100
AcDbEntity
8
0
100
AcDbLine
10
-325.37614696052577
20
-649.77430152315355
30
0
11
-325.37667090148028
21
-652.97455863348637
31
0
0
LINE
5
236
100
AcDbEntity
8
0
100
AcDbLine
10
-503.82627300346678
20
-500.77455970619695
30
0
11
-503.82627300346678
21
-503.97455970619694
31
0
0
LINE
5
237
100
AcDbEntity
8
0
100
AcDbLine
10
-528.07627300346689
20
-544.47417527857147
30
0
11
-528.07620447208762
21
-524.02455863348655
31
0
0
LINE
5
238
100
AcDbEntity
8
0
100
AcDbLine
10
-430.37629058674901
20
-649.77430152315355
30
0
11
-430.37631069615776
21
-652.97455863348637
31
0
0
LINE
5
239
100
AcDbEntity
8
0
100
AcDbLine
10
-524.87627300346685
20
-524.02450434248487
30
0
11
-524.87627304729472
21
-503.97455970619694
31
0
0
LINE
5
240
100
AcDbEntity
8
0
100
AcDbLine
10
-9.0763658924802115
20
-570.47466286547865
30
0
11
-9.0763658924802115
21
-583.27458343907711
31
0
0
LINE
5
241
100
AcDbEntity
8
0
100
AcDbLine
10
-528.07620447208762
20
-524.02455863348655
30
0
11
-524.87627300346685
21
-524.02450434248487
31
0
0
LINE
5
242
100
AcDbEntity
8
0
100
AcDbLine
10
-9.0763658924802026
20
-629.72531622148631
30
0
11
-9.0763658924802026
21
-649.77430152315321
31
0
0
LINE
5
243
100
AcDbEntity
8
0
100
AcDbLine
10
-312.575961431868
20
-652.97455863348637
30
0
11
-312.57650031376943
21
-649.77430152315321
31
0
0
LINE
5
244
100
AcDbEntity
8
0
100
AcDbLine
10
-9.0763658924802204
20
-609.27455375215322
30
0
11
-5.8763078493625809
21
-609.27455863348655
31
0
0
LINE
5
245
100
AcDbEntity
8
0
100
AcDbLine
10
-9.0763658924802115
20
-596.47455863348659
30
0
11
-9.0763658924802204
21
-609.27455375215322
31
0
0
LINE
5
246
100
AcDbEntity
8
0
100
AcDbLine
10
-482.37629189947484
20
-503.97455970619694
30
0
11
-469.57634622843699
21
-503.97455970619694
31
0
0
LINE
5
247
100
AcDbEntity
8
0
100
AcDbLine
10
-469.57627300346695
20
-500.77466574735803
30
0
11
-456.37627300346679
21
-500.77494464333432
31
0
0
LINE
5
248
100
AcDbEntity
8
0
100
AcDbLine
10
-77.575503798826233
20
-649.77430152315321
30
0
11
-90.376288483783256
21
-649.77430152315321
31
0
0
LINE
5
249
100
AcDbEntity
8
0
100
AcDbLine
10
-90.376288483783256
20
-649.77430152315321
30
0
11
-90.376288483783256
21
-652.97453692347881
31
0
0
LINE
5
250
100
AcDbEntity
8
0
100
AcDbLine
10
-77.574606861602931
20
-652.97455863348682
30
0
11
-77.575503798826233
21
-649.77430152315321
31
0
0
LINE
5
251
100
AcDbEntity
8
0
100
AcDbLine
10
-30.126288483783341
20
-649.77430152315321
30
0
11
-30.126288483783341
21
-652.97430152315314
31
0
0
LINE
5
252
100
AcDbEntity
8
0
100
AcDbLine
10
-503.82627300346678
20
-503.97455970619694
30
0
11
-503.82627300346678
21
-500.77455970619695
31
0
0
LINE
5
253
100
AcDbEntity
8
0
100
AcDbLine
10
-64.376338572099101
20
-649.77430152315321
30
0
11
-64.37639582751892
21
-652.97455863348637
31
0
0
LINE
5
254
100
AcDbEntity
8
0
100
AcDbLine
10
-456.37593157656806
20
-503.97455970619694
30
0
11
-443.57627300346684
21
-503.97455970619694
31
0
0
LINE
5
255
100
AcDbEntity
8
0
100
AcDbLine
10
-482.37631349517801
20
-500.77455863348666
30
0
11
-482.37629189947484
21
-503.97455970619694
31
0
0
LINE
5
256
100
AcDbEntity
8
0
100
AcDbLine
10
-9.0763658924802026
20
-649.77430152315321
30
0
11
-30.126288483783341
21
-649.77430152315321
31
0
0
LINE
5
257
100
AcDbEntity
8
0
100
AcDbLine
10
-30.126288483783341
20
-652.97430152315314
30
0
11
-30.126288483783341
21
-649.77430152315321
31
0
0
LINE
5
258
100
AcDbEntity
8
0
100
AcDbLine
10
-5.8763078493625809
20
-609.27455863348655
30
0
11
-5.8762884837833518
21
-629.72440429926883
31
0
0
LINE
5
259
100
AcDbEntity
8
0
100
AcDbLine
10
-524.87627300346685
20
-503.97455970619694
30
0
11
-503.82627300346678
21
-503.97455970619694
31
0
0
LINE
5
260
100
AcDbEntity
8
0
100
AcDbLine
10
-51.576288483783301
20
-652.97430152315371
30
0
11
-51.576442632822577
21
-649.77430152315321
31
0
0
LINE
5
261
100
AcDbEntity
8
0
100
AcDbLine
10
-30.126288483783341
20
-652.97430152315314
30
0
11
-51.576288483783301
21
-652.97430152315371
31
0
0
LINE
5
262
100
AcDbEntity
8
0
100
AcDbLine
10
-456.37627300346679
20
-500.77494464333432
30
0
11
-456.37593157656806
21
-503.97455970619694
31
0
0
LINE
5
263
100
AcDbEntity
8
0
100
AcDbLine
10
-469.57634622843699
20
-503.97455970619694
30
0
11
-469.57627300346695
21
-500.77466574735803
31
0
0
LINE
5
264
100
AcDbEntity
8
0
100
AcDbLine
10
-503.82627300346678
20
-500.77455970619695
30
0
11
-482.37631349517801
21
-500.77455863348666
31
0
0
LINE
5
265
100
AcDbEntity
8
0
100
AcDbLine
10
-64.37639582751892
20
-652.97455863348637
30
0
11
-77.574606861602931
21
-652.97455863348682
31
0
0
LINE
5
266
100
AcDbEntity
8
0
100
AcDbLine
10
-51.576442632822577
20
-649.77430152315321
30
0
11
-64.376338572099101
21
-649.77430152315321
31
0
0
LINE
5
267
100
AcDbEntity
8
0
100
AcDbLine
10
-273.37627300346696
20
-649.77430152315321
30
0
11
-273.37627300346696
21
-652.97349952140189
31
0
0
LINE
5
268
100
AcDbEntity
8
0
100
AcDbLine
10
-234.57627300346701
20
-649.77430152315321
30
0
11
-247.3763571575536
21
-649.77430152315321
31
0
0
LINE
5
269
100
AcDbEntity
8
0
100
AcDbLine
10
-247.3764533546634
20
-652.97455863348637
30
0
11
-260.57627300346695
21
-652.97451338769292
31
0
0
LINE
5
270
100
AcDbEntity
8
0
100
AcDbLine
10
-221.3663301457477
20
-652.97455863348637
30
0
11
-234.57627300346701
21
-652.9743016079658
31
0
0
LINE
5
271
100
AcDbEntity
8
0
100
AcDbLine
10
-260.57621118333532
20
-503.97455970619694
30
0
11
-260.57614048647793
21
-500.77455863348661
31
0
0
LINE
5
272
100
AcDbEntity
8
0
100
AcDbLine
10
-221.37701429827487
20
-652.97455863348637
30
0
11
-221.3663301457477
21
-652.97455863348637
31
0
0
LINE
5
273
100
AcDbEntity
8
0
100
AcDbLine
10
-273.37641509122415
20
-503.97455970619694
30
0
11
-260.57621118333532
21
-503.97455970619694
31
0
0
LINE
5
274
100
AcDbEntity
8
0
100
AcDbLine
10
-103.57618105862905
20
-652.97455863348637
30
0
11
-103.57623835664846
21
-649.77430152315435
31
0
0
LINE
5
275
100
AcDbEntity
8
0
100
AcDbLine
10
-234.57627300346701
20
-652.9743016079658
30
0
11
-234.57627300346701
21
-649.77430152315321
31
0
0
LINE
5
276
100
AcDbEntity
8
0
100
AcDbLine
10
-260.57627300346695
20
-652.97451338769292
30
0
11
-260.57627300346695
21
-649.77430152315321
31
0
0
LINE
5
277
100
AcDbEntity
8
0
100
AcDbLine
10
-260.57614048647793
20
-500.77455863348661
30
0
11
-247.37627300346688
21
-500.77597929432284
31
0
0
LINE
5
278
100
AcDbEntity
8
0
100
AcDbLine
10
-273.37695325628283
20
-500.77455863348661
30
0
11
-273.37641509122415
21
-503.97455970619694
31
0
0
LINE
5
279
100
AcDbEntity
8
0
100
AcDbLine
10
-90.376288483783256
20
-652.97453692347881
30
0
11
-103.57618105862905
21
-652.97455863348637
31
0
0
LINE
5
280
100
AcDbEntity
8
0
100
AcDbLine
10
-221.376306175586
20
-500.77455863348661
30
0
11
-221.37628848378327
21
-503.97455970619694
31
0
0
LINE
5
281
100
AcDbEntity
8
0
100
AcDbLine
10
-234.57627300346701
20
-500.77456104688844
30
0
11
-221.376306175586
21
-500.77455863348661
31
0
0
LINE
5
282
100
AcDbEntity
8
0
100
AcDbLine
10
-286.57616436664142
20
-503.97455970619694
30
0
11
-286.57563232335178
21
-500.77455863348661
31
0
0
LINE
5
283
100
AcDbEntity
8
0
100
AcDbLine
10
-247.37627300346688
20
-500.77597929432284
30
0
11
-247.37626204348331
21
-503.97455970619694
31
0
0
LINE
5
284
100
AcDbEntity
8
0
100
AcDbLine
10
-260.57627300346695
20
-649.77430152315321
30
0
11
-273.37627300346696
21
-649.77430152315321
31
0
0
LINE
5
285
100
AcDbEntity
8
0
100
AcDbLine
10
-286.57563232335178
20
-500.77455863348661
30
0
11
-273.37695325628283
21
-500.77455863348661
31
0
0
LINE
5
286
100
AcDbEntity
8
0
100
AcDbLine
10
-247.3763571575536
20
-649.77430152315321
30
0
11
-247.3764533546634
21
-652.97455863348637
31
0
0
LINE
5
287
100
AcDbEntity
8
0
100
AcDbLine
10
-247.37626204348331
20
-503.97455970619694
30
0
11
-234.57627300346701
21
-503.97455970619694
31
0
0
LINE
5
288
100
AcDbEntity
8
0
100
AcDbLine
10
-103.57628848378326
20
-500.77467671690374
30
0
11
-90.376288483783256
21
-500.77492462155504
31
0
0
LINE
5
289
100
AcDbEntity
8
0
100
AcDbLine
10
-221.37163342947261
20
-649.77430152315321
30
0
11
-221.3663301457477
21
-652.97455863348637
31
0
0
LINE
5
290
100
AcDbEntity
8
0
100
AcDbLine
10
-286.57625825730156
20
-652.97455863348637
30
0
11
-286.57626612436741
21
-649.77430152315321
31
0
0
LINE
5
291
100
AcDbEntity
8
0
100
AcDbLine
10
-273.37627300346696
20
-652.97349952140189
30
0
11
-286.57625825730156
21
-652.97455863348637
31
0
0
LINE
5
292
100
AcDbEntity
8
0
100
AcDbLine
10
-103.57628848378326
20
-503.97455970619694
30
0
11
-103.57628848378326
21
-500.77467671690374
31
0
0
LINE
5
293
100
AcDbEntity
8
0
100
AcDbLine
10
-234.57627300346701
20
-503.97455970619694
30
0
11
-234.57627300346701
21
-500.77456104688844
31
0
0
LINE
5
294
100
AcDbEntity
8
0
100
AcDbLine
10
-77.576288483783244
20
-503.97455970619694
30
0
11
-77.576288483783244
21
-500.77496530317774
31
0
0
LINE
5
295
100
AcDbEntity
8
0
100
AcDbLine
10
-338.57627300346701
20
-503.97455970619694
30
0
11
-338.57627300346701
21
-500.77539594195423
31
0
0
LINE
5
296
100
AcDbEntity
8
0
100
AcDbLine
10
-9.0763658924802115
20
-503.97455970619694
30
0
11
-9.0763658924802115
21
-524.02449443669047
31
0
0
LINE
5
297
100
AcDbEntity
8
0
100
AcDbLine
10
-430.37627300346691
20
-500.77466569256967
30
0
11
-430.37627300346696
21
-503.97455970619694
31
0
0
LINE
5
298
100
AcDbEntity
8
0
100
AcDbLine
10
-325.37667090148028
20
-652.97455863348637
30
0
11
-338.57627300346684
21
-652.97267923026993
31
0
0
LINE
5
299
100
AcDbEntity
8
0
100
AcDbLine
10
-299.37642386897176
20
-500.77455863348661
30
0
11
-299.37580704697695
21
-503.97455970619694
31
0
0
LINE
5
300
100
AcDbEntity
8
0
100
AcDbLine
10
-312.57628794540267
20
-503.97455970619694
30
0
11
-312.57627300346684
21
-500.77601856778466
31
0
0
LINE
5
301
100
AcDbEntity
8
0
100
AcDbLine
10
-90.376288483783256
20
-500.77492462155504
30
0
11
-90.376288483783256
21
-503.97455970619694
31
0
0
LINE
5
302
100
AcDbEntity
8
0
100
AcDbLine
10
-312.57627300346684
20
-500.77601856778466
30
0
11
-299.37642386897176
21
-500.77455863348661
31
0
0
LINE
5
303
100
AcDbEntity
8
0
100
AcDbLine
10
-299.37674429483263
20
-649.77430152315321
30
0
11
-299.37741105628163
21
-652.97455863348637
31
0
0
LINE
5
304
100
AcDbEntity
8
0
100
AcDbLine
10
-299.37741105628163
20
-652.97455863348637
30
0
11
-312.575961431868
21
-652.97455863348637
31
0
0
LINE
5
305
100
AcDbEntity
8
0
100
AcDbLine
10
-443.57627300346684
20
-500.77494474721129
30
0
11
-430.37627300346691
21
-500.77466569256967
31
0
0
LINE
5
306
100
AcDbEntity
8
0
100
AcDbLine
10
-9.0763658924802115
20
-524.02449443669047
30
0
11
-5.8763658924802531
21
-524.02455863348666
31
0
0
LINE
5
307
100
AcDbEntity
8
0
100
AcDbLine
10
-524.87627300346685
20
-557.27455863348655
30
0
11
-524.87627300346685
21
-544.47437974022489
31
0
0
LINE
5
308
100
AcDbEntity
8
0
100
AcDbLine
10
-312.57650031376943
20
-649.77430152315321
30
0
11
-325.37614696052577
21
-649.77430152315355
31
0
0
LINE
5
309
100
AcDbEntity
8
0
100
AcDbLine
10
-5.8762884837833429
20
-544.47413678975272
30
0
11
-9.0763658924802026
21
-544.47436178530461
31
0
0
LINE
5
310
100
AcDbEntity
8
0
100
AcDbLine
10
-30.126288483783341
20
-503.97455970619694
30
0
11
-9.0763658924802115
21
-503.97455970619694
31
0
0
LINE
5
311
100
AcDbEntity
8
0
100
AcDbLine
10
-5.8763658924802531
20
-524.02455863348666
30
0
11
-9.0763658924802115
21
-524.02455863348666
31
0
0
LINE
5
312
100
AcDbEntity
8
0
100
AcDbLine
10
-325.37627300346696
20
-500.77455970071446
30
0
11
-325.37517991962943
21
-503.97455970619694
31
0
0
LINE
5
313
100
AcDbEntity
8
0
100
AcDbLine
10
-51.576274978742234
20
-503.97455970619723
30
0
11
-51.576259544250931
21
-500.77455863348689
31
0
0
LINE
5
314
100
AcDbEntity
8
0
100
AcDbLine
10
-90.376288483783256
20
-503.97455970619694
30
0
11
-77.576288483783244
21
-503.97455970619694
31
0
0
LINE
5
315
100
AcDbEntity
8
0
100
AcDbLine
10
-299.37580704697695
20
-503.97455970619694
30
0
11
-286.57616436664142
21
-503.97455970619694
31
0
0
LINE
5
316
100
AcDbEntity
8
0
100
AcDbLine
10
-5.8764300442525119
20
-570.47455863348659
30
0
11
-9.0763658924802115
21
-570.47466286547865
31
0
0
LINE
5
317
100
AcDbEntity
8
0
100
AcDbLine
10
-5.8763658924802531
20
-524.02455863348666
30
0
11
-5.8762884837833429
21
-544.47413678975272
31
0
0
LINE
5
318
100
AcDbEntity
8
0
100
AcDbLine
10
-5.8762884837833518
20
-557.27500372228462
30
0
11
-5.8764300442525119
21
-570.47455863348659
31
0
0
LINE
5
319
100
AcDbEntity
8
0
100
AcDbLine
10
-9.0763658924801938
20
-557.27476632501509
30
0
11
-5.8762884837833518
21
-557.27500372228462
31
0
0
LINE
5
320
100
AcDbEntity
8
0
100
AcDbLine
10
-9.0763658924802026
20
-544.47436178530461
30
0
11
-9.0763658924801938
21
-557.27476632501509
31
0
0
LINE
5
321
100
AcDbEntity
8
0
100
AcDbLine
10
-443.57627300346684
20
-503.97455970619694
30
0
11
-443.57627300346684
21
-500.77494474721129
31
0
0
LINE
5
322
100
AcDbEntity
8
0
100
AcDbLine
10
-286.57626612436741
20
-649.77430152315321
30
0
11
-299.37674429483263
21
-649.77430152315321
31
0
0
LINE
5
323
100
AcDbEntity
8
0
100
AcDbLine
10
-528.07596389062849
20
-557.27455863348655
30
0
11
-524.87627300346685
21
-557.27455863348655
31
0
0
LINE
5
324
100
AcDbEntity
8
0
100
AcDbLine
10
-325.37517991962943
20
-503.97455970619694
30
0
11
-312.57628794540267
21
-503.97455970619694
31
0
0
LINE
5
325
100
AcDbEntity
8
0
100
AcDbLine
10
-30.126288483783341
20
-500.77455889894918
30
0
11
-30.126288483783341
21
-503.97455970619694
31
0
0
LINE
5
326
100
AcDbEntity
8
0
100
AcDbLine
10
-64.376224442311312
20
-503.97455970619723
30
0
11
-51.576274978742234
21
-503.97455970619723
31
0
0
LINE
5
327
100
AcDbEntity
8
0
100
AcDbLine
10
-64.376288483783313
20
-500.77465525958127
30
0
11
-64.376224442311312
21
-503.97455970619723
31
0
0
LINE
5
328
100
AcDbEntity
8
0
100
AcDbLine
10
-51.576259544250931
20
-500.77455863348689
30
0
11
-30.126288483783341
21
-500.77455889894918
31
0
0
LINE
5
329
100
AcDbEntity
8
0
100
AcDbLine
10
-77.576288483783244
20
-500.77496530317774
30
0
11
-64.376288483783313
21
-500.77465525958127
31
0
0
LINE
5
330
100
AcDbEntity
8
0
100
AcDbLine
10
-338.57627300346701
20
-500.77539594195423
30
0
11
-325.37627300346696
21
-500.77455970071446
31
0
0
LINE
5
331
100
AcDbEntity
8
0
100
AcDbLine
10
-528.07627300346678
20
-629.72442723120014
30
0
11
-524.87627300346685
21
-629.72442723120014
31
0
0
LINE
5
332
100
AcDbEntity
8
0
100
AcDbLine
10
-524.87627300346685
20
-583.27458896715768
30
0
11
-524.87627300346685
21
-570.47467448996633
31
0
0
LINE
5
333
100
AcDbEntity
8
0
100
AcDbLine
10
-524.87627300346685
20
-649.77430152315355
30
0
11
-524.87627300346685
21
-629.72449733184897
31
0
0
LINE
5
334
100
AcDbEntity
8
0
100
AcDbLine
10
-528.07625794580201
20
-609.27455863348655
30
0
11
-524.87627300346685
21
-609.27455589693852
31
0
0
LINE
5
335
100
AcDbEntity
8
0
100
AcDbLine
10
-456.37614908413298
20
-652.97455863348637
30
0
11
-469.57614908413302
21
-652.97455863348637
31
0
0
LINE
5
336
100
AcDbEntity
8
0
100
AcDbLine
10
-443.57627300346672
20
-649.77430152315355
30
0
11
-456.37621518930951
21
-649.77430152315355
31
0
0
LINE
5
337
100
AcDbEntity
8
0
100
AcDbLine
10
-528.07626335221721
20
-596.47455863348659
30
0
11
-528.07627300346689
21
-583.27462363495681
31
0
0
LINE
5
338
100
AcDbEntity
8
0
100
AcDbLine
10
-528.07627300346678
20
-629.72442723120014
30
0
11
-528.07625794580201
21
-609.27455863348655
31
0
0
LINE
5
339
100
AcDbEntity
8
0
100
AcDbLine
10
-456.37621518930951
20
-649.77430152315355
30
0
11
-456.37614908413298
21
-652.97455863348637
31
0
0
LINE
5
340
100
AcDbEntity
8
0
100
AcDbLine
10
-482.37627300346685
20
-649.77430152315355
30
0
11
-482.37627300346685
21
-652.97434882720324
31
0
0
LINE
5
341
100
AcDbEntity
8
0
100
AcDbLine
10
-528.07627300346689
20
-583.27462363495681
30
0
11
-524.87627300346685
21
-583.27458896715768
31
0
0
LINE
5
342
100
AcDbEntity
8
0
100
AcDbLine
10
-524.87627300346685
20
-596.47580212286994
30
0
11
-528.07626335221721
21
-596.47455863348659
31
0
0
LINE
5
343
100
AcDbEntity
8
0
100
AcDbLine
10
-482.37627300346685
20
-652.97434882720324
30
0
11
-503.82627300346667
21
-652.97431790581356
31
0
0
LINE
5
344
100
AcDbEntity
8
0
100
AcDbLine
10
-524.87627300346685
20
-609.27455589693852
30
0
11
-524.87627300346685
21
-596.47580212286994
31
0
0
LINE
5
345
100
AcDbEntity
8
0
100
AcDbLine
10
-469.57614908413302
20
-652.97455863348637
30
0
11
-469.57621518081964
21
-649.77430152315355
31
0
0
LINE
5
346
100
AcDbEntity
8
0
100
AcDbLine
10
-503.82627300346667
20
-652.97431790581356
30
0
11
-503.82627300346667
21
-649.77430152315355
31
0
0
LINE
5
347
100
AcDbEntity
8
0
100
AcDbLine
10
-503.82627300346667
20
-649.77430152315355
30
0
11
-524.87627300346685
21
-649.77430152315355
31
0
0
LINE
5
348
100
AcDbEntity
8
0
100
AcDbLine
10
-524.87627300346685
20
-629.72449733184897
30
0
11
-528.07627300346678
21
-629.72442723120014
31
0
0
LINE
5
349
100
AcDbEntity
8
0
100
AcDbLine
10
-469.57621518081964
20
-649.77430152315355
30
0
11
-482.37627300346685
21
-649.77430152315355
31
0
0
LINE
5
350
100
AcDbEntity
8
0
100
AcDbLine
10
-266.58060073651035
20
-338.02373253475105
30
0
11
-266.58056060269763
21
-483.82347435170738
31
0
0
LINE
5
351
100
AcDbEntity
8
0
100
AcDbLine
10
-266.58060073651035
20
-338.02373253475105
30
0
11
-266.58056060269763
21
-483.82347435170738
31
0
0
LINE
5
352
100
AcDbEntity
8
0
100
AcDbLine
10
-266.97631313726924
20
-503.97457747872556
30
0
11
-266.97627300345647
21
-649.77431929567592
31
0
0
LINE
5
353
100
AcDbEntity
8
0
100
AcDbLine
10
-338.1805606026976
20
-338.02373253475105
30
0
11
-429.98056060269761
21
-338.02373253475105
31
0
0
LINE
5
354
100
AcDbEntity
8
0
100
AcDbLine
10
-338.1805606026976
20
-483.82347435170738
30
0
11
-429.98056060269761
21
-483.82347435170948
31
0
0
LINE
5
355
100
AcDbEntity
8
0
100
AcDbLine
10
-220.98057608301403
20
-338.02373253475105
30
0
11
-103.18057608481438
21
-338.02308125548444
31
0
0
LINE
5
356
100
AcDbEntity
8
0
100
AcDbLine
10
-220.97592102870337
20
-483.82347435170738
30
0
11
-103.17592102870783
21
-483.82344192529115
31
0
0
LINE
5
357
100
AcDbEntity
8
0
100
AcDbLine
10
-338.57627300346701
20
-503.97455970619694
30
0
11
-430.37627300346696
21
-503.97455970619694
31
0
0
LINE
5
358
100
AcDbEntity
8
0
100
AcDbLine
10
-103.57628848378326
20
-503.97455970619694
30
0
11
-221.37628848378327
21
-503.97455970619694
31
0
0
LINE
5
359
100
AcDbEntity
8
0
100
AcDbLine
10
-103.57623835664846
20
-649.77430152315435
30
0
11
-221.37623833776746
21
-649.77641063703254
31
0
0
CIRCLE
5
360
100
AcDbEntity
8
0
100
AcDbCircle
10
-321.58058066960388
20
-410.92360413139596
30
0
40
52.5
0
CIRCLE
5
361
100
AcDbEntity
8
0
100
AcDbCircle
10
-211.5805806696041
20
-410.92360275506246
30
0
40
52.5
0
LINE
5
362
100
AcDbEntity
8
0
100
AcDbLine
10
-404.48054301941534
20
-483.82347435170948
30
0
11
-404.48054301941534
21
-338.02373253475105
31
0
0
LINE
5
363
100
AcDbEntity
8
0
100
AcDbLine
10
-444.48054301941534
20
-483.82347435170948
30
0
11
-444.48054301941534
21
-338.02373253475315
31
0
0
LINE
5
364
100
AcDbEntity
8
0
100
AcDbLine
10
-128.68065349163376
20
-483.82349435076611
30
0
11
-128.68065683772733
21
-471.66766980429998
31
0
0
LINE
5
365
100
AcDbEntity
8
0
100
AcDbLine
10
-128.68065683772733
20
-471.66766980429998
30
0
11
-128.68139571597686
21
-338.02322224152101
31
0
0
LINE
5
366
100
AcDbEntity
8
0
100
AcDbLine
10
-88.680653492259609
20
-483.82327059132433
30
0
11
-88.680653492260433
21
-338.02308125548444
31
0
0
LINE
5
367
100
AcDbEntity
8
0
100
AcDbLine
10
-430.37629058674901
20
-649.77430152315355
30
0
11
-338.57627300346689
21
-649.77430152315355
31
0
0
CIRCLE
5
368
100
AcDbEntity
8
0
100
AcDbCircle
10
-128.08053498886969
20
-576.87443061467502
30
0
40
22.5
0
CIRCLE
5
369
100
AcDbEntity
8
0
100
AcDbCircle
10
-337.8138938599381
20
-210.92360344322918
30
0
40
52.5
0
LWPOLYLINE
5
370
100
AcDbEntity
8
0
100
AcDbPolyline
90
5
70
1
43
0.0
10
-331.8138938599381
20
-204.92360344322918
10
-337.8138938599381
20
-204.92360344322918
10
-343.81389385993816
20
-204.92360344322918
10
-343.81389385993816
20
-226.92360344322918
10
-331.8138938599381
20
-226.92360344322918
0
LWPOLYLINE
5
371
100
AcDbEntity
8
0
100
AcDbPolyline
90
3
70
1
43
0.0
10
-357.8138938599381
20
-168.94444194612447
10
-357.8138938599381
20
-210.92360344322918
10
-357.8138938599381
20
-252.90276494033392
42
-0.63126558642262753
0
LWPOLYLINE
5
372
100
AcDbEntity
8
0
100
AcDbPolyline
90
3
70
1
43
0.0
10
-317.8138938599381
20
-168.94444194612447
10
-317.8138938599381
20
-210.92360344322918
10
-317.8138938599381
20
-252.90276494033392
42
0.63126558642262753
0
LWPOLYLINE
5
373
100
AcDbEntity
8
0
100
AcDbPolyline
90
5
70
1
43
0.0
10
-201.84305711415453
20
-204.92360344322918
10
-195.84305711415453
20
-204.92360344322918
10
-189.84305711415453
20
-204.92360344322918
10
-189.84305711415453
20
-226.92360344322918
10
-201.84305711415453
20
-226.92360344322918
0
LWPOLYLINE
5
374
100
AcDbEntity
8
0
100
AcDbPolyline
90
3
70
1
43
0.0
10
-215.84305711415453
20
-168.94444194612447
10
-215.84305711415453
20
-210.92360344322918
10
-215.8430571141545
20
-252.90276494033392
42
-0.63126558642262753
0
LWPOLYLINE
5
375
100
AcDbEntity
8
0
100
AcDbPolyline
90
3
70
1
43
0.0
10
-175.84305711415453
20
-168.94444194612447
10
-175.84305711415453
20
-210.92360344322918
10
-175.84305711415453
20
-252.90276494033392
42
0.63126558642262753
0
CIRCLE
5
376
100
AcDbEntity
8
0
100
AcDbCircle
10
-195.84305711415453
20
-210.92360344322918
30
0
40
52.5
0
CIRCLE
5
377
100
AcDbEntity
8
0
100
AcDbCircle
10
-211.58058066960652
20
-576.87443061467388
30
0
40
7.9999999999999947
0
CIRCLE
5
378
100
AcDbEntity
8
0
100
AcDbCircle
10
-321.58058066960018
20
-576.87443061467343
30
0
40
7.9999999999999787
0
LINE
5
379
100
AcDbEntity
8
0
100
AcDbLine
10
-286.77627254074378
20
-696.30240460378502
30
0
11
-286.77627300346984
21
-693.10240581048538
31
0
0
LINE
5
380
100
AcDbEntity
8
0
100
AcDbLine
10
-482.5762730034694
20
-790.60255143577615
30
0
11
-482.5762730034694
21
-787.40265631892953
31
0
0
LINE
5
381
100
AcDbEntity
8
0
100
AcDbLine
10
-443.37712233431461
20
-790.60265631892935
30
0
11
-456.57627300346928
21
-790.60248304646711
31
0
0
LINE
5
382
100
AcDbEntity
8
0
100
AcDbLine
10
-325.97625367884871
20
-787.40265632071498
30
0
11
-338.77627300346944
21
-787.40265632071498
31
0
0
LINE
5
383
100
AcDbEntity
8
0
100
AcDbLine
10
-430.57700208370932
20
-787.4026563189293
30
0
11
-443.37646394607862
21
-787.4026563189293
31
0
0
LINE
5
384
100
AcDbEntity
8
0
100
AcDbLine
10
-6.6762999215880825
20
-735.00767361549367
30
0
11
-6.6762731213084692
21
-720.90776429286723
31
0
0
LINE
5
385
100
AcDbEntity
8
0
100
AcDbLine
10
-221.97627300346994
20
-790.60265631489733
30
0
11
-221.97641613475213
21
-787.40265632071498
31
0
0
LINE
5
386
100
AcDbEntity
8
0
100
AcDbLine
10
-247.97630942941794
20
-787.40265632071498
30
0
11
-260.77627588940032
21
-787.40265632071498
31
0
0
LINE
5
387
100
AcDbEntity
8
0
100
AcDbLine
10
-65.37627312130823
20
-696.30767361549385
30
0
11
-78.176433703501118
21
-696.30767361549385
31
0
0
LINE
5
388
100
AcDbEntity
8
0
100
AcDbLine
10
-524.87618625278958
20
-748.70240577680022
30
0
11
-528.07627300346894
21
-748.70240711951226
31
0
0
LINE
5
389
100
AcDbEntity
8
0
100
AcDbLine
10
-65.37627312130823
20
-693.10900373638776
30
0
11
-65.37627312130823
21
-696.30767361549385
31
0
0
LINE
5
390
100
AcDbEntity
8
0
100
AcDbLine
10
-6.6762731213084692
20
-748.7076836973232
30
0
11
-9.876273121308401
21
-748.7076783203388
31
0
0
LINE
5
391
100
AcDbEntity
8
0
100
AcDbLine
10
-528.07627300346894
20
-748.70240711951226
30
0
11
-528.07627300346894
21
-762.80240460199911
31
0
0
LINE
5
392
100
AcDbEntity
8
0
100
AcDbLine
10
-286.77627300346984
20
-693.10240581048538
30
0
11
-299.97625825731348
21
-693.10240460378498
31
0
0
LINE
5
393
100
AcDbEntity
8
0
100
AcDbLine
10
-456.57677745871592
20
-787.4026563189293
30
0
11
-469.37638774609479
21
-787.4026563189293
31
0
0
LINE
5
394
100
AcDbEntity
8
0
100
AcDbLine
10
-528.07627300346894
20
-720.90249523916191
30
0
11
-528.0762462174514
21
-735.00240460199939
31
0
0
LINE
5
395
100
AcDbEntity
8
0
100
AcDbLine
10
-6.6762731213103166
20
-693.10792561549374
30
0
11
-31.126273121308685
21
-693.10922405627196
31
0
0
LINE
5
396
100
AcDbEntity
8
0
100
AcDbLine
10
-338.77627300346944
20
-787.40265632071498
30
0
11
-338.77627300346944
21
-790.60265631474806
31
0
0
LINE
5
397
100
AcDbEntity
8
0
100
AcDbLine
10
-524.87627300346901
20
-762.80240460199911
30
0
11
-524.87627300346901
21
-776.50240460199927
31
0
0
LINE
5
398
100
AcDbEntity
8
0
100
AcDbLine
10
-312.7779859651298
20
-790.60265632071491
30
0
11
-325.97617338437647
21
-790.60265632071491
31
0
0
LINE
5
399
100
AcDbEntity
8
0
100
AcDbLine
10
-524.87618625278958
20
-735.00242547953121
30
0
11
-524.87618625278958
21
-748.70240577680022
31
0
0
LINE
5
400
100
AcDbEntity
8
0
100
AcDbLine
10
-430.57627300346951
20
-790.60265630472384
30
0
11
-338.77627300346944
21
-790.60265631474806
31
0
0
LINE
5
401
100
AcDbEntity
8
0
100
AcDbLine
10
-9.876273121308401
20
-720.90771593117802
30
0
11
-9.876273121308401
21
-707.20775712377758
31
0
0
LINE
5
402
100
AcDbEntity
8
0
100
AcDbLine
10
-31.126273121308685
20
-693.10922405627196
30
0
11
-31.126273121308685
21
-696.30767361549385
31
0
0
LINE
5
403
100
AcDbEntity
8
0
100
AcDbLine
10
-528.07627300346894
20
-762.80240460199911
30
0
11
-524.87627300346901
21
-762.80240460199911
31
0
0
LINE
5
404
100
AcDbEntity
8
0
100
AcDbLine
10
-6.676273121308185
20
-776.50767361497697
30
0
11
-6.676273121308185
21
-790.6076736149771
31
0
0
LINE
5
405
100
AcDbEntity
8
0
100
AcDbLine
10
-9.8762731213078325
20
-776.50767361497697
30
0
11
-6.676273121308185
21
-776.50767361497697
31
0
0
LINE
5
406
100
AcDbEntity
8
0
100
AcDbLine
10
-52.176273121308299
20
-693.10777851857267
30
0
11
-65.37627312130823
21
-693.10900373638776
31
0
0
LINE
5
407
100
AcDbEntity
8
0
100
AcDbLine
10
-430.57627300346962
20
-693.10240461620515
30
0
11
-430.57700208370943
21
-696.30240460199934
31
0
0
LINE
5
408
100
AcDbEntity
8
0
100
AcDbLine
10
-286.77627254074366
20
-787.40265632071498
30
0
11
-286.77627300346967
21
-790.60265511401485
31
0
0
LINE
5
409
100
AcDbEntity
8
0
100
AcDbLine
10
-31.126273121307833
20
-787.40792533242382
30
0
11
-52.17627312130773
21
-787.40792533242382
31
0
0
LINE
5
410
100
AcDbEntity
8
0
100
AcDbLine
10
-524.87618625278958
20
-707.20240460199932
30
0
11
-524.87618625278958
21
-720.90244689760857
31
0
0
LINE
5
411
100
AcDbEntity
8
0
100
AcDbLine
10
-9.876273121308401
20
-748.7076783203388
30
0
11
-9.876273121308401
21
-735.00769450635698
31
0
0
LINE
5
412
100
AcDbEntity
8
0
100
AcDbLine
10
-91.37655792653419
20
-787.40792533242393
30
0
11
-104.17544769929023
21
-787.40792533242393
31
0
0
LINE
5
413
100
AcDbEntity
8
0
100
AcDbLine
10
-482.5762730034694
20
-696.30240460199946
30
0
11
-503.62680094108555
21
-696.30240460199946
31
0
0
LINE
5
414
100
AcDbEntity
8
0
100
AcDbLine
10
-260.77628773393116
20
-693.10240460378498
30
0
11
-273.97627300346983
21
-693.102405808345
31
0
0
LINE
5
415
100
AcDbEntity
8
0
100
AcDbLine
10
-299.97625825731348
20
-693.10240460378498
30
0
11
-299.97627161540748
21
-696.30240460378502
31
0
0
LINE
5
416
100
AcDbEntity
8
0
100
AcDbLine
10
-469.37638774609479
20
-787.4026563189293
30
0
11
-469.37680269071063
21
-790.60265631892935
31
0
0
LINE
5
417
100
AcDbEntity
8
0
100
AcDbLine
10
-528.07627300346678
20
-693.10265660199934
30
0
11
-528.07618625278963
21
-707.20240460199932
31
0
0
LINE
5
418
100
AcDbEntity
8
0
100
AcDbLine
10
-6.676273121308185
20
-762.80767361497681
30
0
11
-6.6762731213084692
21
-748.7076836973232
31
0
0
LINE
5
419
100
AcDbEntity
8
0
100
AcDbLine
10
-338.77627300346973
20
-696.30240460378502
30
0
11
-338.77627300346973
21
-693.10240460975228
31
0
0
LINE
5
420
100
AcDbEntity
8
0
100
AcDbLine
10
-524.87618625278958
20
-720.90244689760857
30
0
11
-528.07627300346894
21
-720.90249523916191
31
0
0
LINE
5
421
100
AcDbEntity
8
0
100
AcDbLine
10
-78.176768121956997
20
-693.10767361549392
30
0
11
-91.376273121308174
21
-693.10880016356793
31
0
0
LINE
5
422
100
AcDbEntity
8
0
100
AcDbLine
10
-6.6763598976366723
20
-707.20767361549383
30
0
11
-6.6762731213103166
21
-693.10792561549374
31
0
0
LINE
5
423
100
AcDbEntity
8
0
100
AcDbLine
10
-469.37680269071063
20
-790.60265631892935
30
0
11
-482.5762730034694
21
-790.60255143577615
31
0
0
LINE
5
424
100
AcDbEntity
8
0
100
AcDbLine
10
-6.6762731213084692
20
-720.90776429286723
30
0
11
-9.876273121308401
21
-720.90771593117802
31
0
0
LINE
5
425
100
AcDbEntity
8
0
100
AcDbLine
10
-469.37680269071063
20
-693.10240460199952
30
0
11
-482.5762730034694
21
-693.10250948515295
31
0
0
LINE
5
426
100
AcDbEntity
8
0
100
AcDbLine
10
-528.0762462174514
20
-735.00240460199939
30
0
11
-524.87618625278958
21
-735.00242547953121
31
0
0
LINE
5
427
100
AcDbEntity
8
0
100
AcDbLine
10
-234.77629033563531
20
-696.30240460378502
30
0
11
-234.77637258178618
21
-693.10240460378498
31
0
0
LINE
5
428
100
AcDbEntity
8
0
100
AcDbLine
10
-456.57627300346928
20
-693.10257787446164
30
0
11
-456.57677745871592
21
-696.30240460199946
31
0
0
LINE
5
429
100
AcDbEntity
8
0
100
AcDbLine
10
-247.97627300346988
20
-693.10317438152333
30
0
11
-247.97630942941794
21
-696.30240460378502
31
0
0
LINE
5
430
100
AcDbEntity
8
0
100
AcDbLine
10
-482.5762730034694
20
-693.10250948515295
30
0
11
-482.5762730034694
21
-696.30240460199946
31
0
0
LINE
5
431
100
AcDbEntity
8
0
100
AcDbLine
10
-104.17544769929052
20
-696.30767361549385
30
0
11
-104.17627312130818
21
-693.10767362993272
31
0
0
LINE
5
432
100
AcDbEntity
8
0
100
AcDbLine
10
-503.62680094108555
20
-787.40265631892953
30
0
11
-503.62680094108555
21
-790.60265631892958
31
0
0
LINE
5
433
100
AcDbEntity
8
0
100
AcDbLine
10
-469.37638774609479
20
-696.30240460199946
30
0
11
-469.37680269071063
21
-693.10240460199952
31
0
0
LINE
5
434
100
AcDbEntity
8
0
100
AcDbLine
10
-234.77637258178618
20
-693.10240460378498
30
0
11
-247.97627300346988
21
-693.10317438152333
31
0
0
LINE
5
435
100
AcDbEntity
8
0
100
AcDbLine
10
-503.62680094108555
20
-790.60265631892958
30
0
11
-528.07627300346905
21
-790.60240466843925
31
0
0
LINE
5
436
100
AcDbEntity
8
0
100
AcDbLine
10
-104.17544769929023
20
-787.40792533242393
30
0
11
-104.17627312130804
21
-790.60792531798506
31
0
0
LINE
5
437
100
AcDbEntity
8
0
100
AcDbLine
10
837.02782686819114
20
-381.75004751528081
30
0
11
837.02782686819114
21
-367.65004751528079
31
0
0
LINE
5
438
100
AcDbEntity
8
0
100
AcDbLine
10
-31.126273121307833
20
-790.60637489164583
30
0
11
-31.126273121307833
21
-787.40792533242382
31
0
0
LINE
5
439
100
AcDbEntity
8
0
100
AcDbLine
10
-78.176433703501118
20
-696.30767361549385
30
0
11
-78.176768121956997
21
-693.10767361549392
31
0
0
LINE
5
440
100
AcDbEntity
8
0
100
AcDbLine
10
837.02786223114015
20
-409.55004751528071
30
0
11
837.02782686819114
21
-395.45004751528086
31
0
0
LINE
5
441
100
AcDbEntity
8
0
100
AcDbLine
10
-312.77640933053578
20
-787.40265632071498
30
0
11
-312.7779859651298
21
-790.60265632071491
31
0
0
LINE
5
442
100
AcDbEntity
8
0
100
AcDbLine
10
-273.97627346147829
20
-696.30240460378502
30
0
11
-286.77627254074378
21
-696.30240460378502
31
0
0
LINE
5
443
100
AcDbEntity
8
0
100
AcDbLine
10
840.22782686819141
20
-353.75013578383459
30
0
11
860.47780971971974
21
-353.75013578383459
31
0
0
LINE
5
444
100
AcDbEntity
8
0
100
AcDbLine
10
-6.676273121308185
20
-762.80767361497681
30
0
11
-9.8762731213081167
21
-762.80767361497715
31
0
0
LINE
5
445
100
AcDbEntity
8
0
100
AcDbLine
10
-52.17627312130773
20
-787.40792533242382
30
0
11
-52.17627312130773
21
-790.60782042934511
31
0
0
LINE
5
446
100
AcDbEntity
8
0
100
AcDbLine
10
-52.176273121308299
20
-696.30767361549385
30
0
11
-52.176273121308299
21
-693.10777851857267
31
0
0
LINE
5
447
100
AcDbEntity
8
0
100
AcDbLine
10
-299.97625825731319
20
-790.60265632071491
30
0
11
-299.9762716154072
21
-787.40265632071498
31
0
0
LINE
5
448
100
AcDbEntity
8
0
100
AcDbLine
10
-299.9762716154072
20
-787.40265632071498
30
0
11
-312.77640933053578
21
-787.40265632071498
31
0
0
LINE
5
449
100
AcDbEntity
8
0
100
AcDbLine
10
-299.97627161540748
20
-696.30240460378502
30
0
11
-312.7764093305359
21
-696.30240460378502
31
0
0
LINE
5
450
100
AcDbEntity
8
0
100
AcDbLine
10
-221.97627300347037
20
-693.1024046096029
30
0
11
-104.17627312130818
21
-693.10767362993272
31
0
0
LINE
5
451
100
AcDbEntity
8
0
100
AcDbLine
10
-325.97625367884905
20
-696.30240460378502
30
0
11
-338.77627300346973
21
-696.30240460378502
31
0
0
LINE
5
452
100
AcDbEntity
8
0
100
AcDbLine
10
-65.376273121308088
20
-787.40792533242382
30
0
11
-78.176433703501118
21
-787.40792533242393
31
0
0
LINE
5
453
100
AcDbEntity
8
0
100
AcDbLine
10
-312.77798596513009
20
-693.10240460378498
30
0
11
-325.97617338437647
21
-693.10240460378498
31
0
0
LINE
5
454
100
AcDbEntity
8
0
100
AcDbLine
10
-247.97627300346988
20
-790.60188654297679
30
0
11
-247.97630942941794
21
-787.40265632071498
31
0
0
LINE
5
455
100
AcDbEntity
8
0
100
AcDbLine
10
-234.77637258178618
20
-790.60265632071491
30
0
11
-247.97627300346988
21
-790.60188654297679
31
0
0
LINE
5
456
100
AcDbEntity
8
0
100
AcDbLine
10
-65.376273121308088
20
-790.60659521152979
30
0
11
-65.376273121308088
21
-787.40792533242382
31
0
0
LINE
5
457
100
AcDbEntity
8
0
100
AcDbLine
10
-247.97630942941794
20
-696.30240460378502
30
0
11
-260.77627588940032
21
-696.30240460378502
31
0
0
LINE
5
458
100
AcDbEntity
8
0
100
AcDbLine
10
-52.17627312130773
20
-790.60782042934511
30
0
11
-65.376273121308088
21
-790.60659521152979
31
0
0
LINE
5
459
100
AcDbEntity
8
0
100
AcDbLine
10
837.0278097197197
20
-437.3499965139813
30
0
11
837.0278097197197
21
-423.2500701956975
31
0
0
LINE
5
460
100
AcDbEntity
8
0
100
AcDbLine
10
-78.176768121956712
20
-790.60792533242397
30
0
11
-91.376273121307889
21
-790.60679878434985
31
0
0
LINE
5
461
100
AcDbEntity
8
0
100
AcDbLine
10
-9.8762731213081167
20
-762.80767361497715
30
0
11
-9.8762731213078325
21
-776.50767361497697
31
0
0
LINE
5
462
100
AcDbEntity
8
0
100
AcDbLine
10
840.22782686819119
20
-409.55004751528071
30
0
11
837.02786223114015
21
-409.55004751528071
31
0
0
LINE
5
463
100
AcDbEntity
8
0
100
AcDbLine
10
-312.7764093305359
20
-696.30240460378502
30
0
11
-312.77798596513009
21
-693.10240460378498
31
0
0
LINE
5
464
100
AcDbEntity
8
0
100
AcDbLine
10
-260.77627588940032
20
-696.30240460378502
30
0
11
-260.77628773393116
21
-693.10240460378498
31
0
0
LINE
5
465
100
AcDbEntity
8
0
100
AcDbLine
10
-260.77627588940032
20
-787.40265632071498
30
0
11
-260.77628773393116
21
-790.60265632071491
31
0
0
LINE
5
466
100
AcDbEntity
8
0
100
AcDbLine
10
-91.376273121307889
20
-790.60679878434985
30
0
11
-91.37655792653419
21
-787.40792533242393
31
0
0
LINE
5
467
100
AcDbEntity
8
0
100
AcDbLine
10
-91.376557926534332
20
-696.30767361549385
30
0
11
-104.17544769929052
21
-696.30767361549385
31
0
0
LINE
5
468
100
AcDbEntity
8
0
100
AcDbLine
10
-524.87627300346901
20
-776.50240460199927
30
0
11
-528.07627300346894
21
-776.50240460199927
31
0
0
LINE
5
469
100
AcDbEntity
8
0
100
AcDbLine
10
-234.77629033563517
20
-787.40265632071498
30
0
11
-234.77637258178618
21
-790.60265632071491
31
0
0
LINE
5
470
100
AcDbEntity
8
0
100
AcDbLine
10
-9.876273121308401
20
-707.20775712377758
30
0
11
-6.6763598976366723
21
-707.20767361549383
31
0
0
LINE
5
471
100
AcDbEntity
8
0
100
AcDbLine
10
893.72780957973202
20
-356.95017917198652
30
0
11
906.52785435420924
21
-356.95017917198652
31
0
0
LINE
5
472
100
AcDbEntity
8
0
100
AcDbLine
10
-528.07627300346894
20
-776.50240460199927
30
0
11
-528.07627300346894
21
-790.6024046019993
31
0
0
LINE
5
473
100
AcDbEntity
8
0
100
AcDbLine
10
-503.62680094108555
20
-693.10240460199952
30
0
11
-528.07627300346678
21
-693.10265660199934
31
0
0
LINE
5
474
100
AcDbEntity
8
0
100
AcDbLine
10
-325.97617338437647
20
-693.10240460378498
30
0
11
-325.97625367884905
21
-696.30240460378502
31
0
0
LINE
5
475
100
AcDbEntity
8
0
100
AcDbLine
10
-6.676273121308185
20
-790.6076736149771
30
0
11
-31.126273121307833
21
-790.60637489164583
31
0
0
LINE
5
476
100
AcDbEntity
8
0
100
AcDbLine
10
919.72747049391444
20
-353.75013578383459
30
0
11
919.72770557003264
21
-356.95017917198652
31
0
0
LINE
5
477
100
AcDbEntity
8
0
100
AcDbLine
10
840.22782686819119
20
-437.3500155310943
30
0
11
837.0278097197197
21
-437.3499965139813
31
0
0
LINE
5
478
100
AcDbEntity
8
0
100
AcDbLine
10
860.47780971971974
20
-353.75013578383459
30
0
11
860.47780971971974
21
-356.95017917198652
31
0
0
LINE
5
479
100
AcDbEntity
8
0
100
AcDbLine
10
-91.376273121308174
20
-693.10880016356793
30
0
11
-91.376557926534332
21
-696.30767361549385
31
0
0
LINE
5
480
100
AcDbEntity
8
0
100
AcDbLine
10
837.0278097197197
20
-423.2500701956975
30
0
11
840.22782686819119
21
-423.24997460545438
31
0
0
LINE
5
481
100
AcDbEntity
8
0
100
AcDbLine
10
-221.97627300346994
20
-790.60265631489733
30
0
11
-104.17627312130804
21
-790.60792531798506
31
0
0
LINE
5
482
100
AcDbEntity
8
0
100
AcDbLine
10
-78.176433703501118
20
-787.40792533242393
30
0
11
-78.176768121956712
21
-790.60792533242397
31
0
0
LINE
5
483
100
AcDbEntity
8
0
100
AcDbLine
10
-286.77627300346967
20
-790.60265511401485
30
0
11
-299.97625825731319
21
-790.60265632071491
31
0
0
LINE
5
484
100
AcDbEntity
8
0
100
AcDbLine
10
906.52827124322982
20
-353.75013578383459
30
0
11
919.72747049391444
21
-353.75013578383459
31
0
0
LINE
5
485
100
AcDbEntity
8
0
100
AcDbLine
10
-260.77628773393116
20
-790.60265632071491
30
0
11
-273.97627300346983
21
-790.60265511615523
31
0
0
LINE
5
486
100
AcDbEntity
8
0
100
AcDbLine
10
-273.97627300346983
20
-693.102405808345
30
0
11
-273.97627346147829
21
-696.30240460378502
31
0
0
LINE
5
487
100
AcDbEntity
8
0
100
AcDbLine
10
860.47780971971974
20
-356.95017917198652
30
0
11
880.52777794800932
21
-356.95017917198652
31
0
0
LINE
5
488
100
AcDbEntity
8
0
100
AcDbLine
10
837.02782686819114
20
-395.45004751528086
30
0
11
840.22782686819119
21
-395.45004751528086
31
0
0
LINE
5
489
100
AcDbEntity
8
0
100
AcDbLine
10
893.72780912968142
20
-353.75013578383459
30
0
11
893.72780957973202
21
-356.95017917198652
31
0
0
LINE
5
490
100
AcDbEntity
8
0
100
AcDbLine
10
880.52777794800932
20
-356.95017917198652
30
0
11
880.52792521984907
21
-353.75013578383459
31
0
0
LINE
5
491
100
AcDbEntity
8
0
100
AcDbLine
10
906.52785435420924
20
-356.95017917198652
30
0
11
906.52827124322982
21
-353.75013578383459
31
0
0
LINE
5
492
100
AcDbEntity
8
0
100
AcDbLine
10
840.22782686819119
20
-423.24997460545438
30
0
11
840.22782686819119
21
-409.55004751528071
31
0
0
LINE
5
493
100
AcDbEntity
8
0
100
AcDbLine
10
986.02762878597048
20
-707.05006012019385
30
0
11
986.02762878597048
21
-720.95006012019371
31
0
0
LWPOLYLINE
5
494
100
AcDbEntity
8
0
100
AcDbPolyline
90
4
70
1
43
0.0
10
883.62787086857202
20
-442.50009162788604
10
883.62787086857202
20
-412.50009162788604
10
880.62787086857179
20
-412.50009162788604
10
880.62787086857202
20
-442.50009162788604
0
LWPOLYLINE
5
495
100
AcDbEntity
8
0
100
AcDbPolyline
90
4
70
1
43
0.0
10
945.62787086857168
20
-442.50009162788604
10
948.62787086857179
20
-442.50009162788604
10
948.62787086857179
20
-412.50009162788604
10
945.62787086857168
20
-412.50009162788604
0
LINE
5
496
100
AcDbEntity
8
0
100
AcDbLine
10
945.72785995033223
20
-356.95017917198652
30
0
11
965.77780971971924
21
-356.95017917198652
31
0
0
LINE
5
497
100
AcDbEntity
8
0
100
AcDbLine
10
906.52798516024723
20
-720.95006012019383
30
0
11
906.52775008412937
21
-717.7500167320419
31
0
0
LINE
5
498
100
AcDbEntity
8
0
100
AcDbLine
10
840.22782686819198
20
-679.25006012019389
30
0
11
837.02768452054784
21
-679.25006012019389
31
0
0
LINE
5
499
100
AcDbEntity
8
0
100
AcDbLine
10
860.47764593444231
20
-720.9500167320416
30
0
11
840.22782686819198
21
-720.95004742859385
31
0
0
SPLINE
5
500
100
AcDbEntity
8
0
100
AcDbSpline
70
1064
71
3
72
14
73
10
74
0
42
0.000000001
43
0.0000000001
44
0.0000000001
40
0
40
0
40
0
40
0
40
0.87464278422679376
40
0.87464280907979342
40
1.7492855805198213
40
1.7492856219418125
40
2.6239283706495407
40
2.6239283830760414
40
3.4985711609094472
40
3.4985711609094472
40
3.4985711609094472
40
3.4985711609094472
10
913.12758478558953
20
-702.3500601201938
30
0
10
909.37758419411603
20
-701.55779810183219
30
0
10
905.62758349608634
20
-700.76553606095842
30
0
10
905.62758607509295
20
-694.93458397352185
30
0
10
910.2121085243316
20
-693.35006015754175
30
0
10
916.04306138529307
20
-693.35006008284586
30
0
10
920.62758440107928
20
-694.93458450766536
30
0
10
920.62758517009968
20
-700.7655359540729
30
0
10
916.87758495120545
20
-701.55779804276131
30
0
10
913.12758478558953
20
-702.3500601201938
30
0
0
LINE
5
501
100
AcDbEntity
8
0
100
AcDbLine
10
840.22782686819198
20
-720.95004742859385
30
0
11
840.22782686819198
21
-707.05006012019396
31
0
0
LWPOLYLINE
5
502
100
AcDbEntity
8
0
100
AcDbPolyline
90
4
70
1
43
0.0
10
893.72779498250247
20
-451.25009086008953
10
906.52814894552432
20
-451.25009086008947
10
906.52791386940612
20
-448.05004747193766
10
893.72780386017052
20
-448.05004747193766
0
LINE
5
503
100
AcDbEntity
8
0
100
AcDbLine
10
880.52759570382932
20
-717.75001673204179
30
0
11
860.47764593444242
21
-717.75001673204179
31
0
0
LWPOLYLINE
5
504
100
AcDbEntity
8
0
100
AcDbPolyline
90
4
70
1
43
0.0
10
932.52780985970662
20
-448.05004747193766
10
919.72776508522941
20
-448.05004747193766
10
919.72734819620882
20
-451.25009086008947
10
932.52781030975711
20
-451.25009086008947
0
LINE
5
505
100
AcDbEntity
8
0
100
AcDbLine
10
945.72775075912034
20
-353.75013578383459
30
0
11
945.72785995033223
21
-356.95017917198652
31
0
0
LINE
5
506
100
AcDbEntity
8
0
100
AcDbLine
10
965.77764593444181
20
-720.95006012019371
30
0
11
965.77764593444181
21
-717.75001673204179
31
0
0
LINE
5
507
100
AcDbEntity
8
0
100
AcDbLine
10
880.5277048950411
20
-720.95006012019383
30
0
11
880.52759570382932
21
-717.75001673204179
31
0
0
LINE
5
508
100
AcDbEntity
8
0
100
AcDbLine
10
837.02782686819205
20
-707.05006012019396
30
0
11
837.02764593444249
21
-692.9500702020207
31
0
0
LINE
5
509
100
AcDbEntity
8
0
100
AcDbLine
10
837.02767272659548
20
-665.15006012019398
30
0
11
840.22782686819198
21
-665.15006012019398
31
0
0
LINE
5
510
100
AcDbEntity
8
0
100
AcDbLine
10
932.52764607442964
20
-717.75001673204179
30
0
11
919.72760129995254
21
-717.75001673204179
31
0
0
LINE
5
511
100
AcDbEntity
8
0
100
AcDbLine
10
860.47764593444242
20
-717.75001673204179
30
0
11
860.47764593444231
21
-720.9500167320416
31
0
0
LINE
5
512
100
AcDbEntity
8
0
100
AcDbLine
10
837.02767272659548
20
-665.15006012019398
30
0
11
840.22782686819198
21
-665.15006012019398
31
0
0
SPLINE
5
513
100
AcDbEntity
8
0
100
AcDbSpline
70
1064
71
3
72
14
73
10
74
0
42
0.000000001
43
0.0000000001
44
0.0000000001
40
0
40
0
40
0
40
0
40
0.6735192090801857
40
0.67351923538318459
40
1.347038425864338
40
1.3470384521673369
40
2.0205576426484977
40
2.0205576557999954
40
2.6940768555806756
40
2.6940768555806756
40
2.6940768555806756
40
2.6940768555806756
10
879.70124593444211
20
-681.61706012019397
30
0
10
877.31999606915792
20
-680.35834208386518
30
0
10
874.93874611087858
20
-679.09962399837968
30
0
10
874.93874575800578
20
-674.60949604097493
30
0
10
877.45618169819022
20
-672.09206006408988
30
0
10
881.94631043372397
20
-672.09206017629799
30
0
10
884.4637461343433
20
-674.60949611563922
30
0
10
884.46374573454113
20
-679.09962428726192
30
0
10
882.08249581124278
20
-680.35834221601715
30
0
10
879.70124593444211
20
-681.61706012019397
30
0
0
LINE
5
514
100
AcDbEntity
8
0
100
AcDbLine
10
919.72770557003264
20
-356.95017917198652
30
0
11
932.52781557926812
21
-356.95017917198652
31
0
0
LINE
5
515
100
AcDbEntity
8
0
100
AcDbLine
10
986.02762878597048
20
-720.95006012019371
30
0
11
965.77764593444181
21
-720.95006012019371
31
0
0
LINE
5
516
100
AcDbEntity
8
0
100
AcDbLine
10
965.77764593444181
20
-720.95006012019371
30
0
11
965.77764593444181
21
-717.75001673204179
31
0
0
LINE
5
517
100
AcDbEntity
8
0
100
AcDbLine
10
965.77780971971924
20
-353.75017917198659
30
0
11
986.02762878596968
21
-353.75014847543457
31
0
0
LINE
5
518
100
AcDbEntity
8
0
100
AcDbLine
10
932.52781557926812
20
-356.95017917198652
30
0
11
932.52782445693606
21
-353.75013578383459
31
0
0
LINE
5
519
100
AcDbEntity
8
0
100
AcDbLine
10
986.02762878597048
20
-692.95006012019383
30
0
11
989.2275934230214
21
-692.95006012019383
31
0
0
LINE
5
520
100
AcDbEntity
8
0
100
AcDbLine
10
986.02762878596968
20
-395.45004751528069
30
0
11
989.22762878596927
21
-395.45004751528069
31
0
0
LINE
5
521
100
AcDbEntity
8
0
100
AcDbLine
10
986.02762878597048
20
-651.250060163537
30
0
11
986.02762878597048
21
-665.15009210438029
31
0
0
LINE
5
522
100
AcDbEntity
8
0
100
AcDbLine
10
986.02762878597048
20
-679.25013303002004
30
0
11
986.02762878597048
21
-692.95006012019383
31
0
0
LINE
5
523
100
AcDbEntity
8
0
100
AcDbLine
10
837.02768452054784
20
-679.25006012019389
30
0
11
837.02767272659548
21
-665.15006012019398
31
0
0
LWPOLYLINE
5
524
100
AcDbEntity
8
0
100
AcDbPolyline
90
4
70
1
43
0.0
10
945.72784149142899
20
-448.05004747193766
10
945.72769421958947
20
-451.25009086008947
10
965.77780971971856
20
-451.25009086008947
10
965.77780971971856
20
-448.05004747193766
0
LINE
5
525
100
AcDbEntity
8
0
100
AcDbLine
10
989.22764593444185
20
-679.25003743977697
30
0
11
986.02762878597048
21
-679.25013303002004
31
0
0
LINE
5
526
100
AcDbEntity
8
0
100
AcDbLine
10
837.02768452054784
20
-679.25006012019389
30
0
11
837.02767272659548
21
-665.15006012019398
31
0
0
LINE
5
527
100
AcDbEntity
8
0
100
AcDbLine
10
906.52775008412937
20
-717.7500167320419
30
0
11
893.72764007489332
21
-717.75001673204179
31
0
0
LINE
5
528
100
AcDbEntity
8
0
100
AcDbLine
10
840.22782686819198
20
-665.15006012019398
30
0
11
840.22782686819198
21
-651.25006012244808
31
0
0
LINE
5
529
100
AcDbEntity
8
0
100
AcDbLine
10
840.22782686819198
20
-665.15006012019398
30
0
11
840.22782686819198
21
-651.25006012244808
31
0
0
LINE
5
530
100
AcDbEntity
8
0
100
AcDbLine
10
919.72718441093184
20
-720.95006012019383
30
0
11
906.52798516024723
21
-720.95006012019383
31
0
0
LINE
5
531
100
AcDbEntity
8
0
100
AcDbLine
10
919.72718441093184
20
-720.95006012019383
30
0
11
906.52798516024723
21
-720.95006012019383
31
0
0
LINE
5
532
100
AcDbEntity
8
0
100
AcDbLine
10
989.22764593444185
20
-665.15011112149307
30
0
11
989.22764593444185
21
-679.25003743977697
31
0
0
LINE
5
533
100
AcDbEntity
8
0
100
AcDbLine
10
893.72764007489332
20
-717.75001673204179
30
0
11
893.72763119722549
21
-720.95006012019383
31
0
0
LINE
5
534
100
AcDbEntity
8
0
100
AcDbLine
10
837.02764593444249
20
-692.9500702020207
30
0
11
840.22782686819198
21
-692.94995916229425
31
0
0
LINE
5
535
100
AcDbEntity
8
0
100
AcDbLine
10
986.02762878597048
20
-707.05006012019385
30
0
11
986.02762878597048
21
-720.95006012019371
31
0
0
LINE
5
536
100
AcDbEntity
8
0
100
AcDbLine
10
906.52798516024723
20
-720.95006012019383
30
0
11
906.52775008412937
21
-717.7500167320419
31
0
0
LINE
5
537
100
AcDbEntity
8
0
100
AcDbLine
10
986.02494373797322
20
-381.75004777840053
30
0
11
989.22494367651461
21
-381.74942061390493
31
0
0
LINE
5
538
100
AcDbEntity
8
0
100
AcDbLine
10
986.02515380066336
20
-367.65014825509081
30
0
11
986.02762878596968
21
-353.75014847543457
31
0
0
LINE
5
539
100
AcDbEntity
8
0
100
AcDbLine
10
986.02762878597048
20
-665.15009210438029
30
0
11
989.22764593444185
21
-665.15011112149307
31
0
0
LINE
5
540
100
AcDbEntity
8
0
100
AcDbLine
10
986.02762878597048
20
-665.15009210438029
30
0
11
989.22764593444185
21
-665.15011112149307
31
0
0
LINE
5
541
100
AcDbEntity
8
0
100
AcDbLine
10
932.52764652448036
20
-720.95006012019383
30
0
11
932.52764607442964
21
-717.75001673204179
31
0
0
LINE
5
542
100
AcDbEntity
8
0
100
AcDbLine
10
840.22782686819198
20
-692.94995916229425
30
0
11
840.22782686819198
21
-679.25006012019389
31
0
0
LINE
5
543
100
AcDbEntity
8
0
100
AcDbLine
10
860.47764593444242
20
-717.75001673204179
30
0
11
860.47764593444231
21
-720.9500167320416
31
0
0
LINE
5
544
100
AcDbEntity
8
0
100
AcDbLine
10
893.72763119722549
20
-720.95006012019383
30
0
11
880.5277048950411
21
-720.95006012019383
31
0
0
LINE
5
545
100
AcDbEntity
8
0
100
AcDbLine
10
986.02515380066336
20
-367.65014825509081
30
0
11
989.22493188256226
21
-367.64942061390514
31
0
0
LINE
5
546
100
AcDbEntity
8
0
100
AcDbLine
10
860.47764593444231
20
-720.9500167320416
30
0
11
840.22782686819198
21
-720.95004742859385
31
0
0
LINE
5
547
100
AcDbEntity
8
0
100
AcDbLine
10
965.77764593444181
20
-717.75001673204179
30
0
11
945.72767770615224
21
-717.75001673204179
31
0
0
SPLINE
5
548
100
AcDbEntity
8
0
100
AcDbSpline
70
1064
71
3
72
14
73
10
74
0
42
0.000000001
43
0.0000000001
44
0.0000000001
40
0
40
0
40
0
40
0
40
0.6735192090801857
40
0.67351923538318459
40
1.347038425864338
40
1.3470384521673369
40
2.0205576426484977
40
2.0205576557999954
40
2.6940768555806756
40
2.6940768555806756
40
2.6940768555806756
40
2.6940768555806756
10
879.70124593444211
20
-681.61706012019397
30
0
10
877.31999606915792
20
-680.35834208386518
30
0
10
874.93874611087858
20
-679.09962399837968
30
0
10
874.93874575800578
20
-674.60949604097493
30
0
10
877.45618169819022
20
-672.09206006408988
30
0
10
881.94631043372397
20
-672.09206017629799
30
0
10
884.4637461343433
20
-674.60949611563922
30
0
10
884.46374573454113
20
-679.09962428726192
30
0
10
882.08249581124278
20
-680.35834221601715
30
0
10
879.70124593444211
20
-681.61706012019397
30
0
0
LINE
5
549
100
AcDbEntity
8
0
100
AcDbLine
10
989.22764593444185
20
-679.25003743977697
30
0
11
986.02762878597048
21
-679.25013303002004
31
0
0
LINE
5
550
100
AcDbEntity
8
0
100
AcDbLine
10
837.02764593444249
20
-692.9500702020207
30
0
11
840.22782686819198
21
-692.94995916229425
31
0
0
LINE
5
551
100
AcDbEntity
8
0
100
AcDbLine
10
840.22782686819198
20
-707.05006012019396
30
0
11
837.02782686819205
21
-707.05006012019396
31
0
0
LINE
5
552
100
AcDbEntity
8
0
100
AcDbLine
10
986.02762878596968
20
-395.45004751528069
30
0
11
986.02494373797322
21
-381.75004777840053
31
0
0
LINE
5
553
100
AcDbEntity
8
0
100
AcDbLine
10
840.22782686819198
20
-692.94995916229425
30
0
11
840.22782686819198
21
-679.25006012019389
31
0
0
LINE
5
554
100
AcDbEntity
8
0
100
AcDbLine
10
840.22782686819198
20
-679.25006012019389
30
0
11
837.02768452054784
21
-679.25006012019389
31
0
0
LINE
5
555
100
AcDbEntity
8
0
100
AcDbLine
10
965.77764593444181
20
-717.75001673204179
30
0
11
945.72767770615224
21
-717.75001673204179
31
0
0
LINE
5
556
100
AcDbEntity
8
0
100
AcDbLine
10
880.52759570382932
20
-717.75001673204179
30
0
11
860.47764593444242
21
-717.75001673204179
31
0
0
LINE
5
557
100
AcDbEntity
8
0
100
AcDbLine
10
906.52775008412937
20
-717.7500167320419
30
0
11
893.72764007489332
21
-717.75001673204179
31
0
0
LINE
5
558
100
AcDbEntity
8
0
100
AcDbLine
10
840.22782686819198
20
-707.05006012019396
30
0
11
837.02782686819205
21
-707.05006012019396
31
0
0
LINE
5
559
100
AcDbEntity
8
0
100
AcDbLine
10
840.22799065346931
20
-451.25007816848949
30
0
11
840.22799065346885
21
-651.25007816848893
31
0
0
LINE
5
560
100
AcDbEntity
8
0
100
AcDbLine
10
945.72767770615224
20
-717.75001673204179
30
0
11
945.72753043431248
21
-720.95006012019383
31
0
0
LINE
5
561
100
AcDbEntity
8
0
100
AcDbLine
10
986.02762878596877
20
-451.25006016353751
30
0
11
986.02762878597048
21
-651.250060163537
31
0
0
LINE
5
562
100
AcDbEntity
8
0
100
AcDbLine
10
986.02762878596968
20
-437.35004751528061
30
0
11
986.02762878596968
21
-451.2500475130264
31
0
0
LINE
5
563
100
AcDbEntity
8
0
100
AcDbLine
10
986.02762878596968
20
-409.55014847318017
30
0
11
986.02762878596968
21
-423.25004751528058
31
0
0
LINE
5
564
100
AcDbEntity
8
0
100
AcDbLine
10
989.2275934230214
20
-692.95006012019383
30
0
11
989.22762878597041
21
-707.05006012019385
31
0
0
SPLINE
5
565
100
AcDbEntity
8
0
100
AcDbSpline
70
1064
71
3
72
14
73
10
74
0
42
0.000000001
43
0.0000000001
44
0.0000000001
40
0
40
0
40
0
40
0
40
0.67351920908017815
40
0.67351923538317704
40
1.3470384258643229
40
1.3470384521673218
40
2.0205576426484826
40
2.0205576557999803
40
2.6940768555806605
40
2.6940768555806605
40
2.6940768555806605
40
2.6940768555806605
10
946.55404593444189
20
-681.61706012019397
30
0
10
944.17279573230132
20
-680.35834208386518
30
0
10
941.7915454371655
20
-679.09962399837968
30
0
10
941.79154643171853
20
-674.60949604097493
30
0
10
944.30898246818458
20
-672.09206010001208
30
0
10
948.79910966372927
20
-672.09206014037579
30
0
10
951.3165459182768
20
-674.60949611563922
30
0
10
951.31654595060718
20
-679.09962428726192
30
0
10
948.93529591927575
20
-680.35834221601715
30
0
10
946.55404593444189
20
-681.61706012019397
30
0
0
LINE
5
566
100
AcDbEntity
8
0
100
AcDbLine
10
989.22777113361371
20
-423.25004751528058
30
0
11
989.22778292756618
21
-437.35004751528061
31
0
0
LINE
5
567
100
AcDbEntity
8
0
100
AcDbLine
10
932.52782445693606
20
-353.75013578383459
30
0
11
945.72775075912034
21
-353.75013578383459
31
0
0
LINE
5
568
100
AcDbEntity
8
0
100
AcDbLine
10
919.72760129995254
20
-717.75001673204179
30
0
11
919.72718441093184
21
-720.95006012019383
31
0
0
LINE
5
569
100
AcDbEntity
8
0
100
AcDbLine
10
945.72767770615224
20
-717.75001673204179
30
0
11
945.72753043431248
21
-720.95006012019383
31
0
0
LINE
5
570
100
AcDbEntity
8
0
100
AcDbLine
10
965.77780971971924
20
-353.75017917198659
30
0
11
965.77780971971924
21
-356.95017917198652
31
0
0
LINE
5
571
100
AcDbEntity
8
0
100
AcDbLine
10
989.22764593444185
20
-665.15011112149307
30
0
11
989.22764593444185
21
-679.25003743977697
31
0
0
LINE
5
572
100
AcDbEntity
8
0
100
AcDbLine
10
989.22493188256226
20
-367.64942061390514
30
0
11
989.22494367651461
21
-381.74942061390493
31
0
0
LINE
5
573
100
AcDbEntity
8
0
100
AcDbLine
10
932.52764652448036
20
-720.95006012019383
30
0
11
932.52764607442964
21
-717.75001673204179
31
0
0
LINE
5
574
100
AcDbEntity
8
0
100
AcDbLine
10
986.02762878597048
20
-651.250060163537
30
0
11
986.02762878597048
21
-665.15009210438029
31
0
0
LINE
5
575
100
AcDbEntity
8
0
100
AcDbLine
10
893.72763119722549
20
-720.95006012019383
30
0
11
880.5277048950411
21
-720.95006012019383
31
0
0
LINE
5
576
100
AcDbEntity
8
0
100
AcDbLine
10
989.22762878597041
20
-707.05006012019385
30
0
11
986.02762878597048
21
-707.05006012019385
31
0
0
LWPOLYLINE
5
577
100
AcDbEntity
8
0
100
AcDbPolyline
90
4
70
1
43
0.0
10
883.62787086857202
20
-392.50009162788609
10
883.62787086857202
20
-362.50009162788615
10
880.62787086857179
20
-362.50009162788615
10
880.62787086857179
20
-392.50009162788609
0
LINE
5
578
100
AcDbEntity
8
0
100
AcDbLine
10
837.02782686819114
20
-395.45004751528086
30
0
11
840.22782686819119
21
-395.45004751528086
31
0
0
LWPOLYLINE
5
579
100
AcDbEntity
8
0
100
AcDbPolyline
90
4
70
1
43
0.0
10
860.47780971971952
20
-451.25004747193748
10
860.47780971971952
20
-448.05004747193766
10
880.5277594891063
20
-448.05004747193766
10
880.52786868031808
20
-451.25009086008953
0
LINE
5
580
100
AcDbEntity
8
0
100
AcDbLine
10
932.52764607442964
20
-717.75001673204179
30
0
11
919.72760129995254
21
-717.75001673204179
31
0
0
LINE
5
581
100
AcDbEntity
8
0
100
AcDbLine
10
989.22762878596927
20
-395.45004751528069
30
0
11
986.02762878596968
21
-395.45004751528069
31
0
0
LWPOLYLINE
5
582
100
AcDbEntity
8
0
100
AcDbPolyline
90
4
70
1
43
0.0
10
945.62787086857168
20
-392.50009162788609
10
948.62787086857179
20
-392.50009162788609
10
948.62787086857179
20
-362.50009162788615
10
945.62787086857168
20
-362.50009162788615
0
LINE
5
583
100
AcDbEntity
8
0
100
AcDbLine
10
945.72753043431248
20
-720.95006012019383
30
0
11
932.52764652448036
21
-720.95006012019383
31
0
0
LINE
5
584
100
AcDbEntity
8
0
100
AcDbLine
10
986.02762878597048
20
-679.25013303002004
30
0
11
986.02762878597048
21
-692.95006012019383
31
0
0
LINE
5
585
100
AcDbEntity
8
0
100
AcDbLine
10
945.72753043431248
20
-720.95006012019383
30
0
11
932.52764652448036
21
-720.95006012019383
31
0
0
LINE
5
586
100
AcDbEntity
8
0
100
AcDbLine
10
965.77780971971924
20
-356.95017917198652
30
0
11
965.77780971971924
21
-353.75017917198659
31
0
0
LINE
5
587
100
AcDbEntity
8
0
100
AcDbLine
10
919.72760129995254
20
-717.75001673204179
30
0
11
919.72718441093184
21
-720.95006012019383
31
0
0
LINE
5
588
100
AcDbEntity
8
0
100
AcDbLine
10
840.22782686819119
20
-395.45004751528086
30
0
11
840.22782686819119
21
-381.75004751528081
31
0
0
LINE
5
589
100
AcDbEntity
8
0
100
AcDbLine
10
986.02762878596968
20
-423.25004751528058
30
0
11
989.22777113361371
21
-423.25004751528058
31
0
0
LINE
5
590
100
AcDbEntity
8
0
100
AcDbLine
10
840.22782686819198
20
-720.95004742859385
30
0
11
840.22782686819198
21
-707.05006012019396
31
0
0
SPLINE
5
591
100
AcDbEntity
8
0
100
AcDbSpline
70
1064
71
3
72
14
73
10
74
0
42
0.000000001
43
0.0000000001
44
0.0000000001
40
0
40
0
40
0
40
0
40
0.67351920908017815
40
0.67351923538317704
40
1.3470384258643229
40
1.3470384521673218
40
2.0205576426484826
40
2.0205576557999803
40
2.6940768555806605
40
2.6940768555806605
40
2.6940768555806605
40
2.6940768555806605
10
946.55404593444189
20
-681.61706012019397
30
0
10
944.17279573230132
20
-680.35834208386518
30
0
10
941.7915454371655
20
-679.09962399837968
30
0
10
941.79154643171853
20
-674.60949604097493
30
0
10
944.30898246818458
20
-672.09206010001208
30
0
10
948.79910966372927
20
-672.09206014037579
30
0
10
951.3165459182768
20
-674.60949611563922
30
0
10
951.31654595060718
20
-679.09962428726192
30
0
10
948.93529591927575
20
-680.35834221601715
30
0
10
946.55404593444189
20
-681.61706012019397
30
0
0
LINE
5
592
100
AcDbEntity
8
0
100
AcDbLine
10
989.2275934230214
20
-692.95006012019383
30
0
11
989.22762878597041
21
-707.05006012019385
31
0
0
LINE
5
593
100
AcDbEntity
8
0
100
AcDbLine
10
837.02782686819205
20
-707.05006012019396
30
0
11
837.02764593444249
21
-692.9500702020207
31
0
0
LINE
5
594
100
AcDbEntity
8
0
100
AcDbLine
10
893.72764007489332
20
-717.75001673204179
30
0
11
893.72763119722549
21
-720.95006012019383
31
0
0
LINE
5
595
100
AcDbEntity
8
0
100
AcDbLine
10
880.5277048950411
20
-720.95006012019383
30
0
11
880.52759570382932
21
-717.75001673204179
31
0
0
LINE
5
596
100
AcDbEntity
8
0
100
AcDbLine
10
989.22778292756618
20
-437.35004751528061
30
0
11
986.02762878596968
21
-437.35004751528061
31
0
0
LINE
5
597
100
AcDbEntity
8
0
100
AcDbLine
10
840.22782686819119
20
-451.25004747193748
30
0
11
840.22782686819119
21
-437.3500155310943
31
0
0
LINE
5
598
100
AcDbEntity
8
0
100
AcDbLine
10
989.22762878596927
20
-395.45004751528069
30
0
11
989.22780971971883
21
-409.55003743345378
31
0
0
LINE
5
599
100
AcDbEntity
8
0
100
AcDbLine
10
989.22762878597041
20
-707.05006012019385
30
0
11
986.02762878597048
21
-707.05006012019385
31
0
0
LINE
5
600
100
AcDbEntity
8
0
100
AcDbLine
10
986.02762878597048
20
-720.95006012019371
30
0
11
965.77764593444181
21
-720.95006012019371
31
0
0
LINE
5
601
100
AcDbEntity
8
0
100
AcDbLine
10
986.02762878597048
20
-692.95006012019383
30
0
11
989.2275934230214
21
-692.95006012019383
31
0
0
LINE
5
602
100
AcDbEntity
8
0
100
AcDbLine
10
989.22780971971883
20
-409.55003743345378
30
0
11
986.02762878596968
21
-409.55014847318017
31
0
0
LWPOLYLINE
5
603
100
AcDbEntity
8
0
100
AcDbPolyline
90
64
70
1
43
0.0
10
278.51741932462068
20
-572.54805651166612
10
278.51749961909314
20
-569.34805651166607
10
291.71568703833992
20
-569.34805651166607
10
291.71726367293411
20
-572.54805651166612
10
304.51740138806235
20
-572.54805651166612
10
304.51741474615642
20
-569.34805651166607
10
317.7174
20
-569.34805771836625
10
317.71740046272612
20
-572.54805651166612
10
330.51739954199172
20
-572.54805651166612
10
330.51739999999995
20
-569.34805771622609
10
343.7173852695388
20
-569.34805651166607
10
343.71739711406974
20
-572.54805651166612
10
356.51736357405213
20
-572.54805651166612
10
356.51740000000007
20
-569.34882628940443
10
369.71730042168372
20
-569.34805651166607
10
369.71738266783467
20
-572.54805651166612
10
382.51725686871782
20
-572.54805651166612
10
382.51739999999995
20
-569.34805651748377
10
500.31740000000002
20
-569.34805652457567
10
500.31822542201758
20
-572.54805651013703
10
513.11711519477376
20
-572.54805651013703
10
513.11739999999998
20
-569.34918305821111
10
526.31690499935121
20
-569.34805651013698
10
526.31723941780717
20
-572.54805651013703
10
539.11739999999998
20
-572.54805651013703
10
539.11739999999998
20
-569.34938663103071
10
552.31739999999991
20
-569.34816141321573
10
552.31739999999991
20
-572.54805651013703
10
573.36739999999998
20
-572.54805651013703
10
573.36739999999998
20
-569.34960695091513
10
597.81740000000002
20
-569.34830822758386
10
597.8173132236717
20
-583.44805651013689
10
594.61739999999998
20
-583.44814001842087
10
594.61739999999998
20
-597.14809882582119
10
597.81740000000002
20
-597.1481471875104
10
597.81737319972035
20
-611.24805651013685
10
594.61739999999998
20
-611.24807740100016
10
594.61739999999998
20
-624.94806121498198
10
597.81740000000002
20
-624.94806659196649
10
597.81740000000002
20
-639.04805650962032
10
76.417399999999986
20
-639.04805650988055
10
76.417399999999986
20
-624.94805902739347
10
79.617486750679376
20
-624.94805768468143
10
79.617486750679376
20
-611.24807738741242
10
76.417426786017586
20
-611.24805650988048
10
76.417399999999986
20
-597.14814714704289
10
79.617486750679376
20
-597.14809880548967
10
79.617486750679376
20
-583.44805650988053
10
76.417486750679302
20
-583.44805650988053
10
76.417399999999986
20
-569.34830816037061
10
100.86687206238366
20
-569.34805650988051
10
100.86687206238366
20
-572.54805650988055
10
121.9174000000001
20
-572.54805650988055
10
121.9174000000001
20
-569.34816139303382
10
135.11687031275903
20
-569.34805650988051
10
135.11728525737482
20
-572.54805650988055
10
147.91689554475363
20
-572.54805650988055
10
147.9174000000001
20
-569.34822978234274
10
161.11655066915489
20
-569.34805650988051
10
161.11720905739077
20
-572.54805650988055
10
173.91667091976024
20
-572.54805650988055
10
173.91739999999999
20
-569.34805652408625
10
265.71740000000005
20
-569.34805651763315
10
265.71740000000005
20
-572.54805651166612
0
LINE
5
604
100
AcDbEntity
8
0
100
AcDbLine
10
71.305893237633384
20
-389.8091566206873
30
0
11
74.505584124795021
21
-389.8091566206873
31
0
0
LWPOLYLINE
5
605
100
AcDbEntity
8
0
100
AcDbPolyline
90
64
70
1
43
0.0
10
135.11728525737468
20
-561.51349000172479
10
147.91689554475363
20
-561.51349000172479
10
147.9174000000001
20
-564.71331672926249
10
161.11655066915489
20
-564.71349000172484
10
161.11720905739077
20
-561.51349000172479
10
173.91667091976024
20
-561.51349000172479
10
173.91739999999999
20
-564.7134899875191
10
265.71740000000005
20
-564.71348999397219
10
265.71740000000005
20
-561.51348999993934
10
278.51741932462068
20
-561.51348999993934
10
278.51749961909314
20
-564.71348999993927
10
291.71568703833992
20
-564.71348999993927
10
291.71726367293411
20
-561.51348999993934
10
304.51740138806235
20
-561.51348999993934
10
304.51741474615642
20
-564.71348999993927
10
317.7174
20
-564.71348879323921
10
317.71740046272612
20
-561.51348999993934
10
330.51739954199172
20
-561.51348999993934
10
330.51739999999995
20
-564.71348879537936
10
343.7173852695388
20
-564.71348999993927
10
343.71739711406968
20
-561.51348999993934
10
356.51736357405213
20
-561.51348999993934
10
356.5173999999999
20
-564.7127202222008
10
369.71730042168372
20
-564.71348999993927
10
369.71738266783461
20
-561.51348999993934
10
382.51725686871782
20
-561.51348999993934
10
382.51739999999995
20
-564.71348999412157
10
500.31739999999991
20
-564.71348998702774
10
500.31822542201752
20
-561.51349000146649
10
513.11711519477376
20
-561.51349000146649
10
513.11739999999998
20
-564.71236345339241
10
526.31690499935121
20
-564.71349000146654
10
526.31723941780717
20
-561.51349000146649
10
539.11739999999998
20
-561.51349000146649
10
539.11739999999998
20
-564.71215988057259
10
552.31739999999991
20
-564.71338509838779
10
552.31739999999991
20
-561.51349000146649
10
573.36739999999998
20
-561.51349000146649
10
573.36739999999986
20
-564.71193956068851
10
597.81740000000002
20
-564.71323828401967
10
597.81731322367159
20
-550.61349000146652
10
594.61739999999986
20
-550.61340649318277
10
594.61739999999986
20
-536.91344768578233
10
597.81739999999991
20
-536.91339932409301
10
597.81737319972024
20
-522.81349000146656
10
594.61739999999986
20
-522.81346911060325
10
594.61739999999986
20
-509.11348529662143
10
597.81740000000002
20
-509.11347991963709
10
597.81740000000002
20
-495.01349000198309
10
76.417399999999986
20
-495.01349000172479
10
76.417399999999986
20
-509.11348748421176
10
79.617486750679376
20
-509.11348882692391
10
79.617486750679376
20
-522.81346912419292
10
76.417426786017586
20
-522.81349000172486
10
76.417399999999986
20
-536.91339936456234
10
79.617486750679376
20
-536.9134477061159
10
79.617486750679376
20
-550.61349000172481
10
76.417486750679302
20
-550.61349000172481
10
76.417399999999986
20
-564.71323835123462
10
100.86687206238366
20
-564.71349000172484
10
100.86687206238366
20
-561.51349000172479
10
121.9174000000001
20
-561.51349000172479
10
121.9174000000001
20
-564.71338511857175
10
135.11687031275903
20
-564.71349000172484
0
LINE
5
606
100
AcDbEntity
8
0
100
AcDbLine
10
71.305584124795018
20
-462.25902521840089
30
0
11
74.505584124795021
21
-462.25902521840089
31
0
0
LINE
5
607
100
AcDbEntity
8
0
100
AcDbLine
10
312.80559887096018
20
-485.50915662068735
30
0
11
312.80559100389434
21
-482.30889951035408
31
0
0
LINE
5
608
100
AcDbEntity
8
0
100
AcDbLine
10
509.01017355277332
20
-482.30679039647606
30
0
11
509.01017355277332
21
-485.50702579680154
31
0
0
LINE
5
609
100
AcDbEntity
8
0
100
AcDbLine
10
71.305652656174274
20
-356.55915662068736
30
0
11
74.505584124795021
21
-356.55910232968552
31
0
0
LINE
5
610
100
AcDbEntity
8
0
100
AcDbLine
10
535.01006620903775
20
-485.50704750680922
30
0
11
521.81185517495362
21
-485.50704750680922
31
0
0
LINE
5
611
100
AcDbEntity
8
0
100
AcDbLine
10
74.505584124795021
20
-415.80918695435844
30
0
11
74.505584124795021
21
-403.00927247716714
31
0
0
LINE
5
612
100
AcDbEntity
8
0
100
AcDbLine
10
364.80558412479468
20
-482.30889951035408
30
0
11
352.00549997070817
21
-482.30889951035408
31
0
0
LINE
5
613
100
AcDbEntity
8
0
100
AcDbLine
10
74.505584124795021
20
-389.8091566206873
30
0
11
74.505584124795021
21
-377.00897772742564
31
0
0
LINE
5
614
100
AcDbEntity
8
0
100
AcDbLine
10
74.505584124795021
20
-377.00897772742564
30
0
11
71.305584124795018
21
-377.00877326577211
31
0
0
LINE
5
615
100
AcDbEntity
8
0
100
AcDbLine
10
495.8102809779275
20
-485.50704750680922
30
0
11
495.81022367990812
21
-482.30679039647606
31
0
0
LINE
5
616
100
AcDbEntity
8
0
100
AcDbLine
10
155.80558412479505
20
-485.50799470422277
30
0
11
155.80558412479505
21
-482.30889951035408
31
0
0
LINE
5
617
100
AcDbEntity
8
0
100
AcDbLine
10
74.505584124795021
20
-356.55910232968552
30
0
11
74.50558408096704
21
-336.50915769339758
31
0
0
LINE
5
618
100
AcDbEntity
8
0
100
AcDbLine
10
74.505584124795021
20
-403.00927247716714
30
0
11
71.305738318478333
21
-403.00915662068735
31
0
0
LINE
5
619
100
AcDbEntity
8
0
100
AcDbLine
10
95.555584124795132
20
-485.50891589301443
30
0
11
95.555584124795132
21
-482.30889951035408
31
0
0
LINE
5
620
100
AcDbEntity
8
0
100
AcDbLine
10
74.505584124795021
20
-462.25909531904961
30
0
11
71.305584124795018
21
-462.25902521840089
31
0
0
LINE
5
621
100
AcDbEntity
8
0
100
AcDbLine
10
326.00558412479467
20
-482.30889951035408
30
0
11
326.00558412479467
21
-485.50809750860287
31
0
0
LINE
5
622
100
AcDbEntity
8
0
100
AcDbLine
10
143.00570804412877
20
-485.50915662068735
30
0
11
129.80570804412878
21
-485.50915662068735
31
0
0
LINE
5
623
100
AcDbEntity
8
0
100
AcDbLine
10
352.00549997070817
20
-482.30889951035408
30
0
11
352.00540377359846
21
-485.50915662068735
31
0
0
LINE
5
624
100
AcDbEntity
8
0
100
AcDbLine
10
352.00540377359846
20
-485.50915662068735
30
0
11
338.80558412479473
21
-485.50911137489373
31
0
0
LINE
5
625
100
AcDbEntity
8
0
100
AcDbLine
10
71.305593776044702
20
-429.00915662068724
30
0
11
71.305584124795018
21
-415.80922162215757
31
0
0
LINE
5
626
100
AcDbEntity
8
0
100
AcDbLine
10
74.505584124795021
20
-441.80915388413928
30
0
11
74.505584124795021
21
-429.01040011007069
31
0
0
LINE
5
627
100
AcDbEntity
8
0
100
AcDbLine
10
117.00558412479502
20
-482.30889951035408
30
0
11
117.00558412479502
21
-485.50894681440406
31
0
0
LINE
5
628
100
AcDbEntity
8
0
100
AcDbLine
10
143.00564193895235
20
-482.30889951035408
30
0
11
143.00570804412877
21
-485.50915662068735
31
0
0
LINE
5
629
100
AcDbEntity
8
0
100
AcDbLine
10
71.305584124795018
20
-377.00877326577211
30
0
11
71.305652656174274
21
-356.55915662068736
31
0
0
LINE
5
630
100
AcDbEntity
8
0
100
AcDbLine
10
117.00558412479502
20
-485.50894681440406
30
0
11
95.555584124795132
21
-485.50891589301443
31
0
0
LINE
5
631
100
AcDbEntity
8
0
100
AcDbLine
10
547.81001940373403
20
-482.30679039647606
30
0
11
535.01012346445748
21
-482.30679039647606
31
0
0
LINE
5
632
100
AcDbEntity
8
0
100
AcDbLine
10
274.0051862267814
20
-485.50915662068735
30
0
11
260.80558412479479
21
-485.5072772174708
31
0
0
LINE
5
633
100
AcDbEntity
8
0
100
AcDbLine
10
274.00571016773591
20
-482.30889951035408
30
0
11
274.0051862267814
21
-485.50915662068735
31
0
0
LINE
5
634
100
AcDbEntity
8
0
100
AcDbLine
10
521.81185517495362
20
-485.50704750680922
30
0
11
521.81095823773046
21
-482.30679039647606
31
0
0
LINE
5
635
100
AcDbEntity
8
0
100
AcDbLine
10
338.80558412479473
20
-482.30889951035408
30
0
11
326.00558412479467
21
-482.30889951035408
31
0
0
LINE
5
636
100
AcDbEntity
8
0
100
AcDbLine
10
74.505584124795021
20
-429.01040011007069
30
0
11
71.305593776044702
21
-429.00915662068724
31
0
0
LINE
5
637
100
AcDbEntity
8
0
100
AcDbLine
10
509.01017355277332
20
-333.30741349487761
30
0
11
509.01017355277332
21
-336.50704857951951
31
0
0
LINE
5
638
100
AcDbEntity
8
0
100
AcDbLine
10
129.80564194744233
20
-482.30889951035408
30
0
11
117.00558412479502
21
-482.30889951035408
31
0
0
LINE
5
639
100
AcDbEntity
8
0
100
AcDbLine
10
169.00554643210398
20
-485.50915662068735
30
0
11
155.80558412479505
21
-485.50799470422277
31
0
0
LINE
5
640
100
AcDbEntity
8
0
100
AcDbLine
10
300.00444607198011
20
-485.50915662068735
30
0
11
286.80589569639375
21
-485.50915662068735
31
0
0
LINE
5
641
100
AcDbEntity
8
0
100
AcDbLine
10
364.80558412479468
20
-333.30915903408908
30
0
11
378.00555095267566
21
-333.3091566206873
31
0
0
LINE
5
642
100
AcDbEntity
8
0
100
AcDbLine
10
286.80589569639375
20
-485.50915662068735
30
0
11
286.80535681449226
21
-482.30889951035408
31
0
0
LINE
5
643
100
AcDbEntity
8
0
100
AcDbLine
10
547.81017355277334
20
-485.50679039647599
30
0
11
547.81001940373403
21
-482.30679039647606
31
0
0
LINE
5
644
100
AcDbEntity
8
0
100
AcDbLine
10
95.555584124795132
20
-333.30915769339759
30
0
11
95.555584124795132
21
-336.50915769339758
31
0
0
LINE
5
645
100
AcDbEntity
8
0
100
AcDbLine
10
169.00556654151279
20
-482.30889951035408
30
0
11
169.00554643210398
21
-485.50915662068735
31
0
0
LINE
5
646
100
AcDbEntity
8
0
100
AcDbLine
10
521.81017355277334
20
-333.30745417650036
30
0
11
535.01017355277338
21
-333.3071441329032
31
0
0
LINE
5
647
100
AcDbEntity
8
0
100
AcDbLine
10
274.00558412479478
20
-333.3091576879151
30
0
11
274.00667720863231
21
-336.50915769339758
31
0
0
SPLINE
5
648
100
AcDbEntity
8
0
100
AcDbSpline
70
1064
71
3
72
14
73
10
74
0
42
0.000000001
43
0.0000000001
44
0.0000000001
40
0
40
0
40
0
40
0
40
0.22450640302672059
40
0.22450641360972884
40
0.44901280915313269
40
0.44901281973613338
40
0.67351921527954539
40
0.67351922057104241
40
0.89802561985611207
40
0.89802561985611207
40
0.89802561985611207
40
0.89802561985611207
10
266.82069999999987
20
-781.95448999999996
30
0
10
266.40112724268238
20
-782.74823997258022
30
0
10
265.9815544655865
20
-783.54198998257721
30
0
10
264.48484545352778
20
-783.5419900174229
30
0
10
263.64569992989652
20
-782.70284459427967
30
0
10
263.64570007010366
20
-781.20613529989043
30
0
10
264.48484444696595
20
-780.3669900396842
30
0
10
265.98155561842111
20
-780.36698996031589
30
0
10
266.40112781415507
20
-781.16073998951208
30
0
10
266.82069999999987
20
-781.95448999999996
30
0
0
SPLINE
5
649
100
AcDbEntity
8
0
100
AcDbSpline
70
1064
71
3
72
14
73
10
74
0
42
0.000000001
43
0.0000000001
44
0.0000000001
40
0
40
0
40
0
40
0
40
0.29634845199527104
40
0.29634846356827105
40
0.59269690738020153
40
0.59269691895320897
40
0.88904536276514401
40
0.88904536855164429
40
1.1853938164552669
40
1.1853938164552669
40
1.1853938164552669
40
1.1853938164552669
10
217.95619999999985
20
-753.5123900000001
30
0
10
216.90845008667878
20
-754.06622592260032
30
0
10
215.86070013244111
20
-754.62006186682913
30
0
10
215.86069986755888
20
-756.59571822162309
30
0
10
216.96837204312226
20
-757.70339002560274
30
0
10
218.94402807260747
20
-757.7033899743974
30
0
10
220.05169784223705
20
-756.59571813403068
30
0
10
220.05170215776303
20
-754.62006179446553
30
0
10
219.00395106865227
20
-754.06622589182564
30
0
10
217.95619999999985
20
-753.5123900000001
30
0
0
LINE
5
650
100
AcDbEntity
8
0
100
AcDbLine
10
74.505584124795021
20
-482.30889951035408
30
0
11
74.505584124795021
21
-462.25909531904961
31
0
0
LINE
5
651
100
AcDbEntity
8
0
100
AcDbLine
10
143.00558412479504
20
-333.30954263053502
30
0
11
143.00592555169374
21
-336.50915769339758
31
0
0
LINE
5
652
100
AcDbEntity
8
0
100
AcDbLine
10
593.51009614407633
20
-356.55704750680923
30
0
11
590.3100961440764
21
-356.55704750680923
31
0
0
LINE
5
653
100
AcDbEntity
8
0
100
AcDbLine
10
260.80558412479479
20
-485.5072772174708
30
0
11
260.80558412479479
21
-482.30889951035408
31
0
0
LINE
5
654
100
AcDbEntity
8
0
100
AcDbLine
10
129.80570804412878
20
-485.50915662068735
30
0
11
129.80564194744233
21
-482.30889951035408
31
0
0
LINE
5
655
100
AcDbEntity
8
0
100
AcDbLine
10
326.00558412479467
20
-485.50809750860287
30
0
11
312.80559887096018
21
-485.50915662068735
31
0
0
LINE
5
656
100
AcDbEntity
8
0
100
AcDbLine
10
71.305599182459645
20
-441.8091566206873
30
0
11
74.505584124795021
21
-441.80915388413928
31
0
0
LINE
5
657
100
AcDbEntity
8
0
100
AcDbLine
10
569.26017355277327
20
-482.30679039647606
30
0
11
569.26017355277327
21
-485.50679039647599
31
0
0
LINE
5
658
100
AcDbEntity
8
0
100
AcDbLine
10
111.61739999999995
20
-871.24899000000005
30
0
11
135.01740000000012
21
-871.24899000000005
31
0
0
LINE
5
659
100
AcDbEntity
8
0
100
AcDbLine
10
95.555584124795132
20
-482.30889951035408
30
0
11
74.505584124795021
21
-482.30889951035408
31
0
0
LINE
5
660
100
AcDbEntity
8
0
100
AcDbLine
10
129.80558412479502
20
-333.30926373455867
30
0
11
143.00558412479504
21
-333.30954263053502
31
0
0
LINE
5
661
100
AcDbEntity
8
0
100
AcDbLine
10
378.0102236987891
20
-482.30889951035408
30
0
11
378.01552698251396
21
-485.50915662068735
31
0
0
LINE
5
662
100
AcDbEntity
8
0
100
AcDbLine
10
569.26017355277327
20
-485.50679039647599
30
0
11
547.81017355277334
21
-485.50679039647599
31
0
0
LINE
5
663
100
AcDbEntity
8
0
100
AcDbLine
10
338.80558412479473
20
-485.50911137489373
30
0
11
338.80558412479473
21
-482.30889951035408
31
0
0
LINE
5
664
100
AcDbEntity
8
0
100
AcDbLine
10
71.305584124795018
20
-415.80922162215757
30
0
11
74.505584124795021
21
-415.80918695435844
31
0
0
LINE
5
665
100
AcDbEntity
8
0
100
AcDbLine
10
521.81095823773046
20
-482.30679039647606
30
0
11
509.01017355277332
21
-482.30679039647606
31
0
0
LINE
5
666
100
AcDbEntity
8
0
100
AcDbLine
10
535.01012346445748
20
-482.30679039647606
30
0
11
535.01006620903775
21
-485.50704750680922
31
0
0
LINE
5
667
100
AcDbEntity
8
0
100
AcDbLine
10
71.305584124795018
20
-462.25902521840089
30
0
11
71.305599182459645
21
-441.8091566206873
31
0
0
LINE
5
668
100
AcDbEntity
8
0
100
AcDbLine
10
364.80558412479479
20
-485.50889959516689
30
0
11
364.80558412479468
21
-482.30889951035408
31
0
0
LINE
5
669
100
AcDbEntity
8
0
100
AcDbLine
10
71.305738318478333
20
-403.00915662068735
30
0
11
71.305893237633384
21
-389.8091566206873
31
0
0
LINE
5
670
100
AcDbEntity
8
0
100
AcDbLine
10
569.26017355277327
20
-485.50679039647599
30
0
11
569.26017355277327
21
-482.30679039647606
31
0
0
LINE
5
671
100
AcDbEntity
8
0
100
AcDbLine
10
509.01017355277332
20
-485.50702579680154
30
0
11
495.8102809779275
21
-485.50704750680922
31
0
0
LINE
5
672
100
AcDbEntity
8
0
100
AcDbLine
10
312.80559100389434
20
-482.30889951035408
30
0
11
300.00511283342911
21
-482.30889951035408
31
0
0
LINE
5
673
100
AcDbEntity
8
0
100
AcDbLine
10
155.80558412479505
20
-482.30889951035408
30
0
11
143.00564193895235
21
-482.30889951035408
31
0
0
LINE
5
674
100
AcDbEntity
8
0
100
AcDbLine
10
117.00556522878713
20
-336.50915769339758
30
0
11
129.80551089982492
21
-336.50915769339758
31
0
0
LINE
5
675
100
AcDbEntity
8
0
100
AcDbLine
10
378.01552698251396
20
-485.50915662068735
30
0
11
364.80558412479479
21
-485.50889959516689
31
0
0
LINE
5
676
100
AcDbEntity
8
0
100
AcDbLine
10
286.80535681449226
20
-482.30889951035408
30
0
11
274.00571016773591
21
-482.30889951035408
31
0
0
LINE
5
677
100
AcDbEntity
8
0
100
AcDbLine
10
300.00511283342911
20
-482.30889951035408
30
0
11
300.00444607198011
21
-485.50915662068735
31
0
0
SPLINE
5
678
100
AcDbEntity
8
0
100
AcDbSpline
70
1064
71
3
72
30
73
26
74
0
42
0.000000001
43
0.0000000001
44
0.0000000001
40
0
40
0
40
0
40
0
40
0.00021479045878111997
40
0.00042948217859146781
40
0.00085856377051438224
40
0.0017155327693222859
40
0.0025709388871097724
40
0.0034248138909781789
40
0.005128080180837249
40
0.0068255931540830584
40
0.0085175923366108755
40
0.010204310772612359
40
0.013562685102893903
40
0.016902573553624348
40
0.020225610477634246
40
0.026826251802471363
40
0.033376686116716354
40
0.039886599736430876
40
0.052810407330674464
40
0.065658689914650292
40
0.078472468882190283
40
0.091286155194232693
40
0.10413413860526556
40
0.13005431262688499
40
0.15679725330742633
40
0.15679725330742633
40
0.15679725330742633
40
0.15679725330742633
10
306.55689999999998
20
-759.59139000000005
30
0
10
306.55690044195012
20
-759.59067403166273
30
0
10
306.55690132564712
20
-759.58924242411808
30
0
10
306.55691078608027
20
-759.58638055745132
30
0
10
306.55694256586207
20
-759.5813781717294
30
0
10
306.55703390365466
20
-759.57424047325367
30
0
10
306.55721606168896
20
-759.56568814031232
30
0
10
306.55755519089047
20
-759.55431792567379
30
0
10
306.55815883470751
20
-759.54014784752849
30
0
10
306.5591697921264
20
-759.52320125946699
30
0
10
306.56046432535675
20
-759.50632922395971
30
0
10
306.56256211857294
20
-759.48396955667545
30
0
10
306.56587908244069
20
-759.4562113426357
30
0
10
306.57096201672636
20
-759.42318944291412
30
0
10
306.57915660070444
20
-759.37973656547138
30
0
10
306.59203872565627
20
-759.32630988715277
30
0
10
306.61161803152135
20
-759.26371507110707
30
0
10
306.64287931666695
20
-759.18288395069442
30
0
10
306.69145048360429
20
-759.08649663264873
30
0
10
306.76376657724438
20
-758.97971305251804
30
0
10
306.84877077744386
20
-758.88324716121906
30
0
10
306.94528348484062
20
-758.79815054875178
30
0
10
307.08794787244614
20
-758.70196618011937
30
0
10
307.29141234568891
20
-758.61189084194302
30
0
10
307.46748716421001
20
-758.59829442054252
30
0
10
307.55689999999993
20
-758.59139000000005
30
0
0
LINE
5
679
100
AcDbEntity
8
0
100
AcDbLine
10
286.0779
20
-783.99139000000002
30
0
11
285.0779
21
-783.99139000000002
31
0
0
LINE
5
680
100
AcDbEntity
8
0
100
AcDbLine
10
135.01740000000012
20
-874.24898999999994
30
0
11
111.61739999999995
21
-874.24898999999994
31
0
0
SPLINE
5
681
100
AcDbEntity
8
0
100
AcDbSpline
70
1064
71
3
72
30
73
26
74
0
42
0.000000001
43
0.0000000001
44
0.0000000001
40
0
40
0
40
0
40
0
40
0.00021478798543062924
40
0.00042947970602782461
40
0.00085856129370245741
40
0.0017155302378849618
40
0.0025709361928004915
40
0.0034248108734033721
40
0.0051280758466455013
40
0.0068255862696647235
40
0.0085175813006194284
40
0.010204293638347703
40
0.013562648750349947
40
0.016902506611451221
40
0.020225499632606565
40
0.02682600775888104
40
0.033376241351654824
40
0.039885884232459819
40
0.052808957888936421
40
0.065656325812211938
40
0.078469163966469094
40
0.09128209485901774
40
0.10412976221558493
40
0.13005172716152724
40
0.1568015505299106
40
0.1568015505299106
40
0.1568015505299106
40
0.1568015505299106
10
287.07789999999994
20
-782.99138999999991
30
0
10
287.07789955826468
20
-782.99210596009277
30
0
10
287.07789867499218
20
-782.99353755939524
30
0
10
287.07788921889005
20
-782.99639941781743
30
0
10
287.07785745335661
20
-783.00140180342532
30
0
10
287.07776615610533
20
-783.00853950159865
30
0
10
287.07758407820444
20
-783.01709183435264
30
0
10
287.07724509715638
20
-783.02846204730008
30
0
10
287.07664171478092
20
-783.04263212197407
30
0
10
287.07563118933945
20
-783.05957870838415
30
0
10
287.07433720209156
20
-783.07645074230959
30
0
10
287.07224028351357
20
-783.09881039228571
30
0
10
287.06892467927378
20
-783.1265685768401
30
0
10
287.06384376746195
20
-783.15959046748719
30
0
10
287.05565236906807
20
-783.2030432364844
30
0
10
287.04277506616307
20
-783.25646975718723
30
0
10
287.02320256105628
20
-783.31906456999025
30
0
10
286.99195150339574
20
-783.39989531706703
30
0
10
286.94339442553229
20
-783.49628253742185
30
0
10
286.87109464805366
20
-783.60306681917359
30
0
10
286.78610431147195
20
-783.69953351952188
30
0
10
286.68960092658745
20
-783.78463075872617
30
0
10
286.54693585455141
20
-783.88081917908244
30
0
10
286.34344022691158
20
-783.97089512790944
30
0
10
286.16733603657235
20
-783.98448716591292
30
0
10
286.0779
20
-783.99139000000002
30
0
0
SPLINE
5
682
100
AcDbEntity
8
0
100
AcDbSpline
70
1064
71
3
72
14
73
10
74
0
42
0.000000001
43
0.0000000001
44
0.0000000001
40
0
40
0
40
0
40
0
40
0.60167716011163275
40
0.60167718360863254
40
1.2033543271053855
40
1.2033543506023943
40
1.8050314940991303
40
1.8050315058476305
40
2.4067086576518193
40
2.4067086576518193
40
2.4067086576518193
40
2.4067086576518193
10
211.8432
20
-741.50498999999991
30
0
10
209.71595116121932
20
-742.62944474929225
30
0
10
207.58870223936418
20
-743.75389954249715
30
0
10
207.58869776063585
20
-747.76508063708991
30
0
10
209.83760919845059
20
-750.01399004066025
30
0
10
213.84879103651934
20
-750.01398995933971
30
0
10
216.09769974366424
20
-747.7650804600114
30
0
10
216.09770025633571
20
-743.75389939481215
30
0
10
213.9704501073993
20
-742.62944468642786
30
0
10
211.8432
20
-741.50498999999991
30
0
0
SPLINE
5
683
100
AcDbEntity
8
0
100
AcDbSpline
70
1064
71
3
72
30
73
26
74
0
42
0.000000001
43
0.0000000001
44
0.0000000001
40
0
40
0
40
0
40
0
40
0.00021474902556756125
40
0.00042940198904471553
40
0.00085840667416316576
40
0.0017152242646391264
40
0.0025704821455460043
40
0.0034242120420691245
40
0.0051271973425953375
40
0.0068244413417058915
40
0.0085161832305187517
40
0.010202655719407549
40
0.013560570906316013
40
0.016900041641019273
40
0.020222699688966447
40
0.026822690052006506
40
0.033372599423953028
40
0.039882096346003683
40
0.052805335440465812
40
0.065653318894020582
40
0.078467005337827009
40
0.09128078453360175
40
0.10412906745521661
40
0.13005073352152557
40
0.1567972092144756
40
0.1567972092144756
40
0.1567972092144756
40
0.1567972092144756
10
285.0779
20
-783.99139000000002
30
0
10
285.07718416977349
20
-783.99138955816613
30
0
10
285.07575282952746
20
-783.99138867469605
30
0
10
285.07289148651148
20
-783.99137921648867
30
0
10
285.06788999100343
20
-783.99134744386299
30
0
10
285.06075354757024
20
-783.99125612628779
30
0
10
285.05220269664898
20
-783.9910740083501
30
0
10
285.04083439514426
20
-783.99073495268203
30
0
10
285.02666663071523
20
-783.9901314379739
30
0
10
285.00972272568282
20
-783.98912069587413
30
0
10
284.99285325115795
20
-783.98782643498021
30
0
10
284.97049676588489
20
-783.98572907116761
30
0
10
284.94274224372464
20
-783.98241277041745
30
0
10
284.90972442653413
20
-783.97733084145943
30
0
10
284.8662761721767
20
-783.96913779183228
30
0
10
284.81285428587518
20
-783.95625796514787
30
0
10
284.75026399305011
20
-783.93668203660104
30
0
10
284.66943642727824
20
-783.90542556064793
30
0
10
284.57305065088156
20
-783.85686104536364
30
0
10
284.4662653226851
20
-783.78455335295666
30
0
10
284.36979436794587
20
-783.69955643959156
30
0
10
284.2846904777424
20
-783.60304878125385
30
0
10
284.18849372507447
20
-783.4603851122705
30
0
10
284.0984030294365
20
-783.25690671320149
30
0
10
284.08480532544326
20
-783.08081480041528
30
0
10
284.0779
20
-782.99138999999991
30
0
0
LINE
5
684
100
AcDbEntity
8
0
100
AcDbLine
10
284.0779
20
-782.99138999999991
30
0
11
284.0779
21
-759.59139000000005
31
0
0
LINE
5
685
100
AcDbEntity
8
0
100
AcDbLine
10
308.55689999999993
20
-783.99139000000002
30
0
11
307.55689999999993
21
-783.99139000000002
31
0
0
SPLINE
5
686
100
AcDbEntity
8
0
100
AcDbSpline
70
1064
71
3
72
30
73
26
74
0
42
0.000000001
43
0.0000000001
44
0.0000000001
40
0
40
0
40
0
40
0
40
0.00021482694540900878
40
0.00042955742408429872
40
0.00085871592209343277
40
0.0017158362816079346
40
0.0025713904803894277
40
0.0034254102752873362
40
0.0051289562517822735
40
0.0068267356627412269
40
0.0085189880010946122
40
0.010205946299473127
40
0.013564760581514505
40
0.016905036184555307
40
0.02022840810686289
40
0.026829567242507339
40
0.033380325821783643
40
0.039890385442185719
40
0.052814027683512149
40
0.065661694843531543
40
0.07847462567188293
40
0.091287463890430035
40
0.10413483201037557
40
0.13005530564085532
40
0.15680159501766638
40
0.15680159501766638
40
0.15680159501766638
40
0.15680159501766638
10
286.0779
20
-758.59139000000005
30
0
10
286.07861608995933
20
-758.59139044183303
30
0
10
286.08004794832203
20
-758.59139132530072
30
0
10
286.08291032216897
20
-758.59140078349355
30
0
10
286.08791359803308
20
-758.59143255600191
30
0
10
286.0950525513104
20
-758.59152387320864
30
0
10
286.10360636616099
20
-758.59170599089703
30
0
10
286.11497849234757
20
-758.59204504506874
30
0
10
286.12915088087561
20
-758.59264855604863
30
0
10
286.1461001504897
20
-758.59365929621265
30
0
10
286.16297474558166
20
-758.59495355521153
30
0
10
286.18533757782558
20
-758.59705090242869
30
0
10
286.21309945460069
20
-758.60036716885838
30
0
10
286.24612542822462
20
-758.60544908492352
30
0
10
286.28958282093515
20
-758.61364201630477
30
0
10
286.34301413451465
20
-758.62652161587903
30
0
10
286.40561347169074
20
-758.64609749655915
30
0
10
286.48644777506229
20
-758.67735336135684
30
0
10
286.58283653940919
20
-758.7259170888035
30
0
10
286.68961907601499
20
-758.79822526596411
30
0
10
286.78608071579367
20
-758.88322288874349
30
0
10
286.87117067996633
20
-758.97973132295476
30
0
10
286.96734671976697
20
-759.12239711553866
30
0
10
287.05740731513356
20
-759.32587882246639
30
0
10
287.07099807061815
20
-759.5019659245628
30
0
10
287.07789999999994
20
-759.59139000000005
30
0
0
SPLINE
5
687
100
AcDbEntity
8
0
100
AcDbSpline
70
1064
71
3
72
14
73
10
74
0
42
0.000000001
43
0.0000000001
44
0.0000000001
40
0
40
0
40
0
40
0
40
0.67351920908018825
40
0.67351923538318714
40
1.3470384258643429
40
1.3470384521673433
40
2.020557642648503
40
2.0205576558000042
40
2.6940768555806778
40
2.6940768555806778
40
2.6940768555806778
40
2.6940768555806778
10
502.85039999999992
20
-734.33308999999997
30
0
10
504.1091180086006
20
-731.95184004477653
30
0
10
505.36783606635817
20
-729.57058999655783
30
0
10
509.85796413467494
20
-729.57059000344213
30
0
10
512.37539959798482
20
-732.08802613249213
30
0
10
512.3754004020152
20
-736.57815413053777
30
0
10
509.85796459563619
20
-739.09559002690821
30
0
10
505.3678352418504
20
-739.09558997309182
30
0
10
504.10911760863598
20
-736.71433996329711
30
0
10
502.85039999999992
20
-734.33308999999997
30
0
0
LINE
5
688
100
AcDbEntity
8
0
100
AcDbLine
10
136.01739999999992
20
-872.24898999999994
30
0
11
136.01739999999992
21
-873.24899000000005
31
0
0
LINE
5
689
100
AcDbEntity
8
0
100
AcDbLine
10
306.55689999999998
20
-782.99138999999991
30
0
11
306.55689999999998
21
-759.59139000000005
31
0
0
SPLINE
5
690
100
AcDbEntity
8
0
100
AcDbSpline
70
1064
71
3
72
30
73
26
74
0
42
0.000000001
43
0.0000000001
44
0.0000000001
40
0
40
0
40
0
40
0
40
0.00021478798543108089
40
0.0004294797060291417
40
0.00085856129370244223
40
0.0017155302378853907
40
0.0025709361927990031
40
0.0034248108734036596
40
0.0051280758466457892
40
0.0068255862696641658
40
0.0085175813006197563
40
0.010204293638347146
40
0.013562648750350272
40
0.016902506611452425
40
0.020225499632606017
40
0.026826007758877533
40
0.033376241351653867
40
0.039885884232456301
40
0.052808957888934888
40
0.065656325812219835
40
0.078469163966483721
40
0.091282094859014326
40
0.10412976221557099
40
0.13005172716152724
40
0.1568015505299106
40
0.1568015505299106
40
0.1568015505299106
40
0.1568015505299106
10
309.55689999999998
20
-782.99138999999991
30
0
10
309.55689955826466
20
-782.99210596009277
30
0
10
309.55689867499194
20
-782.99353755939524
30
0
10
309.55688921889021
20
-782.99639941781743
30
0
10
309.55685745335643
20
-783.00140180342532
30
0
10
309.55676615610543
20
-783.00853950159865
30
0
10
309.5565840782042
20
-783.01709183435264
30
0
10
309.55624509715625
20
-783.02846204730008
30
0
10
309.55564171478073
20
-783.04263212197407
30
0
10
309.55463118933949
20
-783.05957870838415
30
0
10
309.55333720209154
20
-783.07645074230959
30
0
10
309.55124028351344
20
-783.09881039228583
30
0
10
309.54792467927393
20
-783.1265685768401
30
0
10
309.54284376746187
20
-783.15959046748719
30
0
10
309.53465236906823
20
-783.2030432364844
30
0
10
309.52177506616329
20
-783.25646975718723
30
0
10
309.50220256105627
20
-783.31906456999013
30
0
10
309.47095150339601
20
-783.39989531706703
30
0
10
309.4223944255325
20
-783.49628253742196
30
0
10
309.35009464805347
20
-783.60306681917382
30
0
10
309.26510431147176
20
-783.69953351952188
30
0
10
309.16860092658737
20
-783.78463075872617
30
0
10
309.02593585455168
20
-783.88081917908255
30
0
10
308.82244022691168
20
-783.97089512790944
30
0
10
308.64633603657234
20
-783.98448716591292
30
0
10
308.55690000000004
20
-783.99139000000002
30
0
0
SPLINE
5
691
100
AcDbEntity
8
0
100
AcDbSpline
70
1064
71
3
72
14
73
10
74
0
42
0.000000001
43
0.0000000001
44
0.0000000001
40
0
40
0
40
0
40
0
40
0.67351920908019136
40
0.67351923538319025
40
1.3470384258643455
40
1.3470384521673444
40
2.0205576426485021
40
2.0205576558000016
40
2.6940768555806809
40
2.6940768555806809
40
2.6940768555806809
40
2.6940768555806809
10
416.85040004334297
20
-801.18590714847141
30
0
10
418.10911809190202
20
-798.80465720529492
30
0
10
419.36783618961778
20
-796.42340716912315
30
0
10
423.85796409810155
20
-796.4234071278197
30
0
10
426.37540009227291
20
-798.94084321465596
30
0
10
426.37539999441316
20
-803.43097134531706
30
0
10
423.85796394358988
20
-805.94840710510664
30
0
10
419.36783598058287
20
-805.94840719183617
30
0
10
418.10911799967369
20
-803.56715714690506
30
0
10
416.85040004334297
20
-801.18590714847141
30
0
0
SPLINE
5
692
100
AcDbEntity
8
0
100
AcDbSpline
70
1064
71
3
72
14
73
10
74
0
42
0.000000001
43
0.0000000001
44
0.0000000001
40
0
40
0
40
0
40
0
40
0.67351920908019269
40
0.67351923538319158
40
1.3470384258643482
40
1.3470384521673484
40
2.0205576426485035
40
2.0205576558000029
40
2.6940768555806804
40
2.6940768555806804
40
2.6940768555806804
40
2.6940768555806804
10
416.85040004334297
20
-734.33310714847141
30
0
10
418.10911809190202
20
-731.95185720100835
30
0
10
419.36783618961778
20
-729.57060716055025
30
0
10
423.85796409810155
20
-729.57060713639248
30
0
10
426.37540029271372
20
-732.08804327841381
30
0
10
426.37539979397229
20
-736.57817128155909
30
0
10
423.85796316774048
20
-739.09560707655271
30
0
10
419.36783675643227
20
-739.09560722039009
30
0
10
418.10911838759836
20
-736.71435716118197
30
0
10
416.85040004334297
20
-734.33310714847141
30
0
0
LINE
5
693
100
AcDbEntity
8
0
100
AcDbLine
10
287.07789999999994
20
-759.59139000000005
30
0
11
287.07789999999994
21
-782.99138999999991
31
0
0
LINE
5
694
100
AcDbEntity
8
0
100
AcDbLine
10
110.61739999999993
20
-873.24899000000005
30
0
11
110.61739999999993
21
-872.24898999999994
31
0
0
SPLINE
5
695
100
AcDbEntity
8
0
100
AcDbSpline
70
1064
71
3
72
30
73
26
74
0
42
0.000000001
43
0.0000000001
44
0.0000000001
40
0
40
0
40
0
40
0
40
0.00021482694541611504
40
0.0004295574241056111
40
0.00085871592211474363
40
0.0017158362816150257
40
0.0025713904804036346
40
0.0034254102753229557
40
0.005128956251803516
40
0.0068267356627411185
40
0.0085189880010947509
40
0.010205946299480588
40
0.013564760581521822
40
0.016905036184555619
40
0.020228408106869652
40
0.026829567242513345
40
0.03338032582178363
40
0.03989038544220655
40
0.05281402768353323
40
0.065661694843540855
40
0.07847462567189567
40
0.091287463890442191
40
0.10413483201038641
40
0.13005530564086135
40
0.15680159501767457
40
0.15680159501767457
40
0.15680159501767457
40
0.15680159501767457
10
308.55689999999993
20
-758.59139000000005
30
0
10
308.55761608995925
20
-758.59139044183303
30
0
10
308.55904794832207
20
-758.59139132530095
30
0
10
308.56191032216918
20
-758.59140078349355
30
0
10
308.56691359803324
20
-758.59143255600191
30
0
10
308.57405255131039
20
-758.59152387320864
30
0
10
308.58260636616126
20
-758.59170599089703
30
0
10
308.59397849234773
20
-758.59204504506874
30
0
10
308.60815088087588
20
-758.59264855604863
30
0
10
308.62510015048952
20
-758.59365929621254
30
0
10
308.64197474558182
20
-758.59495355521165
30
0
10
308.66433757782534
20
-758.5970509024288
30
0
10
308.69209945460079
20
-758.60036716885838
30
0
10
308.72512542822454
20
-758.60544908492375
30
0
10
308.76858282093514
20
-758.61364201630477
30
0
10
308.82201413451463
20
-758.62652161587903
30
0
10
308.88461347169078
20
-758.64609749655915
30
0
10
308.96544777506233
20
-758.67735336135684
30
0
10
309.06183653940934
20
-758.7259170888035
30
0
10
309.16861907601503
20
-758.79822526596422
30
0
10
309.26508071579372
20
-758.88322288874349
30
0
10
309.35017067996631
20
-758.97973132295476
30
0
10
309.44634671976706
20
-759.12239711553866
30
0
10
309.5364073151336
20
-759.32587882246639
30
0
10
309.54999807061819
20
-759.5019659245628
30
0
10
309.55689999999998
20
-759.59139000000005
30
0
0
LINE
5
696
100
AcDbEntity
8
0
100
AcDbLine
10
285.0779
20
-758.59139000000005
30
0
11
286.0779
21
-758.59139000000005
31
0
0
SPLINE
5
697
100
AcDbEntity
8
0
100
AcDbSpline
70
1064
71
3
72
14
73
10
74
0
42
0.000000001
43
0.0000000001
44
0.0000000001
40
0
40
0
40
0
40
0
40
0.22450640302672625
40
0.2245064136107266
40
0.44901280915343705
40
0.44901281973643109
40
0.67351921527985315
40
0.67351922057135283
40
0.89802561985640872
40
0.89802561985640872
40
0.89802561985640872
40
0.89802561985640872
10
112.52239999999993
20
-831.51279
30
0
10
113.31614997571563
20
-831.09321732460569
30
0
10
114.1098999888515
20
-830.67364462943135
30
0
10
114.10990001114833
20
-829.1769352896755
30
0
10
113.27075425581448
20
-828.33779004125995
30
0
10
111.77404563835303
20
-828.33778995874013
30
0
10
110.93489684517635
20
-829.17693541311451
30
0
10
110.93490315482377
20
-830.67364465227274
30
0
10
111.72865158676601
20
-831.09321733108095
30
0
10
112.52239999999993
20
-831.51279
30
0
0
SPLINE
5
698
100
AcDbEntity
8
0
100
AcDbSpline
70
1064
71
3
72
30
73
26
74
0
42
0.000000001
43
0.0000000001
44
0.0000000001
40
0
40
0
40
0
40
0
40
0.00021479045878201571
40
0.00042948217859560333
40
0.00085856377051547988
40
0.0017155327693211834
40
0.0025709388871146639
40
0.0034248138909815269
40
0.0051280801808382369
40
0.0068255931540826265
40
0.0085175923366102736
40
0.010204310772608879
40
0.013562685102893218
40
0.016902573553620154
40
0.020225610477632678
40
0.026826251802471241
40
0.033376686116717402
40
0.039886599736432132
40
0.052810407330677829
40
0.065658689914645324
40
0.078472468882200233
40
0.091286155194232194
40
0.10413413860527745
40
0.1300543126268828
40
0.15679725330743138
40
0.15679725330743138
40
0.15679725330743138
40
0.15679725330743138
10
284.0779
20
-759.59139000000005
30
0
10
284.07790044195019
20
-759.59067403166273
30
0
10
284.07790132564747
20
-759.58924242411808
30
0
10
284.07791078607949
20
-759.58638055745132
30
0
10
284.07794256586283
20
-759.5813781717294
30
0
10
284.07803390365427
20
-759.57424047325367
30
0
10
284.07821606168909
20
-759.56568814031232
30
0
10
284.07855519089026
20
-759.55431792567379
30
0
10
284.07915883470764
20
-759.54014784752849
30
0
10
284.08016979212613
20
-759.52320125946699
30
0
10
284.08146432535727
20
-759.50632922395982
30
0
10
284.08356211857239
20
-759.48396955667545
30
0
10
284.08687908244065
20
-759.45621134263592
30
0
10
284.0919620167262
20
-759.42318944291412
30
0
10
284.10015660070451
20
-759.37973656547138
30
0
10
284.11303872565617
20
-759.32630988715277
30
0
10
284.13261803152136
20
-759.26371507110707
30
0
10
284.16387931666691
20
-759.18288395069442
30
0
10
284.21245048360447
20
-759.08649663264885
30
0
10
284.28476657724423
20
-758.97971305251781
30
0
10
284.36977077744405
20
-758.88324716121917
30
0
10
284.46628348484069
20
-758.79815054875166
30
0
10
284.60894787244621
20
-758.70196618011937
30
0
10
284.81241234568898
20
-758.61189084194291
30
0
10
284.98848716421014
20
-758.59829442054252
30
0
10
285.0779
20
-758.59139000000005
30
0
0
SPLINE
5
699
100
AcDbEntity
8
0
100
AcDbSpline
70
1064
71
3
72
14
73
10
74
0
42
0.000000001
43
0.0000000001
44
0.0000000001
40
0
40
0
40
0
40
0
40
0.29634845199527721
40
0.2963484635682771
40
0.59269690738021663
40
0.59269691895321697
40
0.889045362765151
40
0.88904536855165106
40
1.1853938164552649
40
1.1853938164552649
40
1.1853938164552649
40
1.1853938164552649
10
200.53159999999997
20
-743.66399000000001
30
0
10
199.48385102048434
20
-744.21782592100897
30
0
10
198.43610200005202
20
-744.77166186364627
30
0
10
198.436097999948
20
-746.74731822480589
30
0
10
199.5437725618406
20
-747.85499001444748
30
0
10
201.51942755388939
20
-747.85498998555249
30
0
10
202.6271001649655
20
-746.74731811901097
30
0
10
202.62709983503441
20
-744.77166180948518
30
0
10
201.57934990728796
20
-744.21782589933537
30
0
10
200.53159999999991
20
-743.66399000000001
30
0
0
SPLINE
5
700
100
AcDbEntity
8
0
100
AcDbSpline
70
1064
71
3
72
30
73
26
74
0
42
0.000000001
43
0.0000000001
44
0.0000000001
40
0
40
0
40
0
40
0
40
0.00021474902554624215
40
0.00042940198903052164
40
0.00085840667414184384
40
0.001715224264639085
40
0.0025704821455530954
40
0.003424212042076295
40
0.0051271973425739033
40
0.0068244413416916555
40
0.0085161832305117036
40
0.010202655719400582
40
0.013560570906309046
40
0.016900041641026285
40
0.020222699688959494
40
0.026822690051992441
40
0.033372599423939622
40
0.039882096345989798
40
0.052805335440444176
40
0.065653318894012463
40
0.078467005337815032
40
0.091280784533594797
40
0.10412906745521726
40
0.13005073352152224
40
0.15679720921447043
40
0.15679720921447043
40
0.15679720921447043
40
0.15679720921447043
10
307.55689999999993
20
-783.99139000000002
30
0
10
307.55618416977342
20
-783.99138955816613
30
0
10
307.55475282952744
20
-783.99138867469605
30
0
10
307.55189148651152
20
-783.99137921648855
30
0
10
307.54688999100352
20
-783.99134744386299
30
0
10
307.53975354757017
20
-783.99125612628779
30
0
10
307.53120269664885
20
-783.9910740083501
30
0
10
307.51983439514436
20
-783.99073495268203
30
0
10
307.50566663071527
20
-783.99013143797401
30
0
10
307.48872272568292
20
-783.98912069587413
30
0
10
307.47185325115794
20
-783.98782643498021
30
0
10
307.44949676588487
20
-783.98572907116761
30
0
10
307.42174224372462
20
-783.98241277041745
30
0
10
307.38872442653411
20
-783.97733084145943
30
0
10
307.34527617217657
20
-783.96913779183228
30
0
10
307.29185428587533
20
-783.9562579651481
30
0
10
307.22926399305015
20
-783.93668203660104
30
0
10
307.14843642727834
20
-783.90542556064793
30
0
10
307.05205065088165
20
-783.85686104536364
30
0
10
306.94526532268526
20
-783.78455335295666
30
0
10
306.84879436794597
20
-783.69955643959156
30
0
10
306.76369047774244
20
-783.60304878125385
30
0
10
306.66749372507411
20
-783.46038511227061
30
0
10
306.57740302943665
20
-783.25690671320126
30
0
10
306.56380532544324
20
-783.08081480041528
30
0
10
306.55689999999998
20
-782.99138999999991
30
0
0
SPLINE
5
701
100
AcDbEntity
8
0
100
AcDbSpline
70
1064
71
3
72
14
73
10
74
0
42
0.000000001
43
0.0000000001
44
0.0000000001
40
0
40
0
40
0
40
0
40
0.29634845199527127
40
0.29634846356827094
40
0.5926969073802002
40
0.59269691895320764
40
0.88904536276514134
40
0.88904536855164129
40
1.1853938164552642
40
1.1853938164552642
40
1.1853938164552642
40
1.1853938164552642
10
217.95619999999985
20
-733.81559000000016
30
0
10
216.90845029575257
20
-734.36942591682532
30
0
10
215.8607005505886
20
-734.92326185527895
30
0
10
215.86069944941144
20
-736.89891823317316
30
0
10
216.96837204312226
20
-738.00659000809401
30
0
10
218.94402807260752
20
-738.00658999190603
30
0
10
220.05169681584084
20
-736.89891813068061
30
0
10
220.05170318415912
20
-734.92326179781548
30
0
10
219.00395158185034
20
-734.36942589350065
30
0
10
217.95619999999985
20
-733.81559000000016
30
0
0
LINE
5
702
100
AcDbEntity
8
0
100
AcDbLine
10
309.55689999999998
20
-759.59139000000005
30
0
11
309.55689999999998
21
-782.99138999999991
31
0
0
SPLINE
5
703
100
AcDbEntity
8
0
100
AcDbSpline
70
1064
71
3
72
14
73
10
74
0
42
0.000000001
43
0.0000000001
44
0.0000000001
40
0
40
0
40
0
40
0
40
0.60167716011164274
40
0.60167718360864253
40
1.2033543271053952
40
1.2033543506023969
40
1.805031494099133
40
1.8050315058476332
40
2.4067086576518166
40
2.4067086576518166
40
2.4067086576518166
40
2.4067086576518166
10
119.7916
20
-741.50498999999991
30
0
10
117.66434995000679
20
-742.62944474851156
30
0
10
115.53709981693927
20
-743.75389954093578
30
0
10
115.53710018306049
20
-747.76508063865117
30
0
10
117.7860093295395
20
-750.01399004066968
30
0
10
121.79719090543045
20
-750.01398995933027
30
0
10
124.04610093271266
20
-747.7650804600114
30
0
10
124.04609906728716
20
-743.75389939481215
30
0
10
121.91884951287498
20
-742.62944468642786
30
0
10
119.7916
20
-741.50498999999991
30
0
0
SPLINE
5
704
100
AcDbEntity
8
0
100
AcDbSpline
70
1064
71
3
72
14
73
10
74
0
42
0.000000001
43
0.0000000001
44
0.0000000001
40
0
40
0
40
0
40
0
40
0.22450640302672437
40
0.22450641360972373
40
0.44901280915313513
40
0.44901281973612917
40
0.67351921527954428
40
0.67351922057104485
40
0.89802561985611828
40
0.89802561985611828
40
0.89802561985611828
40
0.89802561985611828
10
148.71739999999994
20
-863.09699000000001
30
0
10
149.51114973860214
20
-862.6774173933012
30
0
10
150.30489951462087
20
-862.25784476682418
30
0
10
150.30490048537885
20
-860.76113515229008
30
0
10
149.46575476724391
20
-859.92198998881747
30
0
10
147.96904512692606
20
-859.92199001118252
30
0
10
147.12989866595939
20
-860.76113548550268
30
0
10
147.12990133404062
20
-862.25784457988448
30
0
10
147.92365067637439
20
-862.67741729488671
30
0
10
148.71740000000003
20
-863.09699000000001
30
0
0
SPLINE
5
705
100
AcDbEntity
8
0
100
AcDbSpline
70
1064
71
3
72
30
73
26
74
0
42
0.000000001
43
0.0000000001
44
0.0000000001
40
0
40
0
40
0
40
0
40
0.00021482694541611832
40
0.00042955742409855798
40
0.00085871592209331188
40
0.0017158362816204514
40
0.0025713904803983997
40
0.003425410275307233
40
0.0051289562517953732
40
0.0068267356627451439
40
0.0085189880010976306
40
0.010205946299480292
40
0.013564760581510772
40
0.016905036184556757
40
0.020228408106874481
40
0.026829567242515413
40
0.033380325821787064
40
0.039890385442201116
40
0.052814027683536185
40
0.06566169484354456
40
0.078474625671897377
40
0.091287463890452267
40
0.10413483201037199
40
0.13005530564087092
40
0.15680159501767371
40
0.15680159501767371
40
0.15680159501767371
40
0.15680159501767371
10
110.61739999999993
20
-872.24898999999994
30
0
10
110.61740044183296
20
-872.24827391004067
30
0
10
110.61740132530076
20
-872.24684205167796
30
0
10
110.61741078349371
20
-872.24397967783091
30
0
10
110.61744255600154
20
-872.23897640196697
30
0
10
110.61753387320884
20
-872.23183744868948
30
0
10
110.61771599089688
20
-872.22328363383883
30
0
10
110.618055045069
20
-872.2119115076523
30
0
10
110.61865855604879
20
-872.19773911912409
30
0
10
110.61966929621278
20
-872.18078984951035
30
0
10
110.62096355521078
20
-872.16391525441827
30
0
10
110.6230609024292
20
-872.14155242217453
30
0
10
110.62637716885817
20
-872.11379054539918
30
0
10
110.63145908492373
20
-872.08076457177538
30
0
10
110.63965201630438
20
-872.03730717906467
30
0
10
110.65253161587911
20
-871.98387586548529
30
0
10
110.67210749655906
20
-871.92127652830914
30
0
10
110.70336336135647
20
-871.84044222493753
30
0
10
110.75192708880351
20
-871.74405346059075
30
0
10
110.82423526596429
20
-871.63727092398506
30
0
10
110.90923288874365
20
-871.54080928420626
30
0
10
111.00574132295471
20
-871.45571932003372
30
0
10
111.14840711553839
20
-871.35954328023263
30
0
10
111.35188882246624
20
-871.26948268486649
30
0
10
111.52797592456274
20
-871.25589192938173
30
0
10
111.61739999999995
20
-871.24899000000005
30
0
0
LINE
5
706
100
AcDbEntity
8
0
100
AcDbLine
10
307.55689999999993
20
-758.59139000000005
30
0
11
308.55689999999993
21
-758.59139000000005
31
0
0
SPLINE
5
707
100
AcDbEntity
8
0
100
AcDbSpline
70
1064
71
3
72
30
73
26
74
0
42
0.000000001
43
0.0000000001
44
0.0000000001
40
0
40
0
40
0
40
0
40
0.00021478798542352571
40
0.00042947970604917667
40
0.00085856129370768641
40
0.0017155302378693204
40
0.0025709361927829708
40
0.0034248108733889058
40
0.0051280758466643872
40
0.0068255862696514798
40
0.0085175813005960357
40
0.010204293638353547
40
0.013562648750352513
40
0.016902506611441263
40
0.02022549963259037
40
0.026826007758869008
40
0.033376241351659432
40
0.039885884232456897
40
0.052808957888924812
40
0.065656325812208843
40
0.078469163966479238
40
0.091282094859006679
40
0.10412976221557436
40
0.13005172716151206
40
0.1568015505299023
40
0.1568015505299023
40
0.1568015505299023
40
0.1568015505299023
10
135.01740000000012
20
-871.24899000000005
30
0
10
135.01811596009276
20
-871.24899044173526
30
0
10
135.01954755939528
20
-871.24899132500786
30
0
10
135.02240941781778
20
-871.24900078111011
30
0
10
135.02741180342539
20
-871.24903254664321
30
0
10
135.03454950159858
20
-871.24912384389461
30
0
10
135.04310183435257
20
-871.24930592179567
30
0
10
135.05447204730012
20
-871.24964490284356
30
0
10
135.06864212197414
20
-871.25024828521919
30
0
10
135.08558870838414
20
-871.2512588106606
30
0
10
135.10246074230969
20
-871.25255279790849
30
0
10
135.12482039228573
20
-871.25464971648648
30
0
10
135.15257857684014
20
-871.25796532072604
30
0
10
135.18560046748732
20
-871.26304623253816
30
0
10
135.22905323648439
20
-871.27123763093152
30
0
10
135.28247975718728
20
-871.28411493383715
30
0
10
135.34507456999017
20
-871.3036874389436
30
0
10
135.42590531706722
20
-871.33493849660408
30
0
10
135.52229253742183
20
-871.38349557446782
30
0
10
135.62907681917386
20
-871.45579535194645
30
0
10
135.72554351952192
20
-871.54078568852799
30
0
10
135.81064075872604
20
-871.63728907341283
30
0
10
135.90682917908248
20
-871.77995414544864
30
0
10
135.99690512790943
20
-871.9834497730883
30
0
10
136.01049716591285
20
-872.1595539634277
30
0
10
136.01739999999992
20
-872.24899000000005
30
0
0
SPLINE
5
708
100
AcDbEntity
8
0
100
AcDbSpline
70
1064
71
3
72
14
73
10
74
0
42
0.000000001
43
0.0000000001
44
0.0000000001
40
0
40
0
40
0
40
0
40
0.22450640302672123
40
0.22450641361072157
40
0.44901280915342701
40
0.44901281973642104
40
0.67351921527983805
40
0.67351922057133773
40
0.89802561985640872
40
0.89802561985640872
40
0.89802561985640872
40
0.89802561985640872
10
148.71739999999994
20
-831.51279
30
0
10
149.51115007683711
20
-831.09321732460569
30
0
10
150.3049001910943
20
-830.67364462943135
30
0
10
150.30489980890542
20
-829.1769352896755
30
0
10
149.46575476724155
20
-828.33779004125995
30
0
10
147.96904512692606
20
-828.33778995874013
30
0
10
147.12989856044004
20
-829.17693547644922
30
0
10
147.12990143956
20
-830.67364458893803
30
0
10
147.92365072913418
20
-831.0932172994136
30
0
10
148.71740000000003
20
-831.51279
30
0
0
SPLINE
5
709
100
AcDbEntity
8
0
100
AcDbSpline
70
1064
71
3
72
30
73
26
74
0
42
0.000000001
43
0.0000000001
44
0.0000000001
40
0
40
0
40
0
40
0
40
0.00021474902555866578
40
0.00042940198904479684
40
0.0008584066741506623
40
0.001715224264630306
40
0.0025704821455494169
40
0.0034242120420837864
40
0.0051271973425876059
40
0.0068244413416971
40
0.0085161832305061125
40
0.010202655719409762
40
0.013560570906307561
40
0.016900041641020682
40
0.020222699688964646
40
0.0268226900519936
40
0.033372599423935834
40
0.039882096345984892
40
0.052805335440447229
40
0.065653318893995061
40
0.078467005337829743
40
0.091280784533574091
40
0.10412906745521555
40
0.13005073352152188
40
0.15679720921445695
40
0.15679720921445695
40
0.15679720921445695
40
0.15679720921445695
10
136.01739999999992
20
-873.24899000000005
30
0
10
136.01739955816612
20
-873.2497058302265
30
0
10
136.01739867469618
20
-873.25113717047259
30
0
10
136.01738921648808
20
-873.25399851348857
30
0
10
136.01735744386338
20
-873.25900000899651
30
0
10
136.01726612628738
20
-873.26613645242969
30
0
10
136.01708400835022
20
-873.27468730335113
30
0
10
136.01674495268156
20
-873.28605560485585
30
0
10
136.01614143797411
20
-873.30022336928482
30
0
10
136.01513069587384
20
-873.31716727431717
30
0
10
136.01383643498031
20
-873.33403674884198
30
0
10
136.01173907116731
20
-873.3563932341151
30
0
10
136.00842277041778
20
-873.38414775627541
30
0
10
136.00334084145908
20
-873.41716557346581
30
0
10
135.99514779183244
20
-873.46061382782341
30
0
10
135.98226796514786
20
-873.51403571412459
30
0
10
135.9626920366008
20
-873.57662600694982
30
0
10
135.93143556064817
20
-873.65745357272158
30
0
10
135.88287104536357
20
-873.75383934911838
30
0
10
135.81056335295676
20
-873.86062467731472
30
0
10
135.72556643959138
20
-873.95709563205401
30
0
10
135.62905878125392
20
-874.04219952225742
30
0
10
135.48639511227051
20
-874.13839627492598
30
0
10
135.28291671320142
20
-874.22848697056338
30
0
10
135.10682480041524
20
-874.24208467455674
30
0
10
135.01740000000012
20
-874.24898999999994
30
0
0
LINE
5
710
100
AcDbEntity
8
0
100
AcDbLine
10
466.7174
20
-837.45947285152852
30
0
11
463.51740000000001
21
-837.45947285152852
31
0
0
LINE
5
711
100
AcDbEntity
8
0
100
AcDbLine
10
169.00558412479484
20
-336.50915769339758
30
0
11
260.80558412479479
21
-336.50915769339758
31
0
0
LINE
5
712
100
AcDbEntity
8
0
100
AcDbLine
10
169.00556654151279
20
-482.30889951035408
30
0
11
260.8055665415128
21
-482.30889951035408
31
0
0
LINE
5
713
100
AcDbEntity
8
0
100
AcDbLine
10
495.81022367990812
20
-482.30679039647606
30
0
11
378.0102236987891
21
-482.30889951035408
31
0
0
LINE
5
714
100
AcDbEntity
8
0
100
AcDbLine
10
-456.57627300346928
20
-790.60248304646711
30
0
11
-456.57677745871592
21
-787.4026563189293
31
0
0
LINE
5
715
100
AcDbEntity
8
0
100
AcDbLine
10
-430.57700208370943
20
-696.30240460199934
30
0
11
-443.37646394607884
21
-696.30240460199946
31
0
0
LINE
5
716
100
AcDbEntity
8
0
100
AcDbLine
10
-503.62680094108555
20
-696.30240460199946
30
0
11
-503.62680094108555
21
-693.10240460199952
31
0
0
LINE
5
717
100
AcDbEntity
8
0
100
AcDbLine
10
-221.97641613475213
20
-787.40265632071498
30
0
11
-234.77629033563517
21
-787.40265632071498
31
0
0
LINE
5
718
100
AcDbEntity
8
0
100
AcDbLine
10
-443.37712233431461
20
-693.10240460199952
30
0
11
-456.57627300346928
21
-693.10257787446164
31
0
0
LINE
5
719
100
AcDbEntity
8
0
100
AcDbLine
10
-325.97617338437647
20
-790.60265632071491
30
0
11
-325.97625367884871
21
-787.40265632071498
31
0
0
LINE
5
720
100
AcDbEntity
8
0
100
AcDbLine
10
-482.5762730034694
20
-787.40265631892953
30
0
11
-503.62680094108555
21
-787.40265631892953
31
0
0
LINE
5
721
100
AcDbEntity
8
0
100
AcDbLine
10
-273.97627346147829
20
-787.40265632071498
30
0
11
-286.77627254074366
21
-787.40265632071498
31
0
0
LINE
5
722
100
AcDbEntity
8
0
100
AcDbLine
10
466.7174
20
-840.65947285152856
30
0
11
466.7174
21
-837.45947285152852
31
0
0
LINE
5
723
100
AcDbEntity
8
0
100
AcDbLine
10
-273.97627300346983
20
-790.60265511615523
30
0
11
-273.97627346147829
21
-787.40265632071498
31
0
0
LINE
5
724
100
AcDbEntity
8
0
100
AcDbLine
10
-31.126273121308685
20
-696.30767361549385
30
0
11
-52.176273121308299
21
-696.30767361549385
31
0
0
LINE
5
725
100
AcDbEntity
8
0
100
AcDbLine
10
-430.57627300346951
20
-790.60265630472384
30
0
11
-430.57700208370932
21
-787.4026563189293
31
0
0
LINE
5
726
100
AcDbEntity
8
0
100
AcDbLine
10
-456.57677745871592
20
-696.30240460199946
30
0
11
-469.37638774609479
21
-696.30240460199946
31
0
0
LINE
5
727
100
AcDbEntity
8
0
100
AcDbLine
10
-443.37646394607862
20
-787.4026563189293
30
0
11
-443.37712233431461
21
-790.60265631892935
31
0
0
LINE
5
728
100
AcDbEntity
8
0
100
AcDbLine
10
495.81017355277334
20
-336.50704857951951
30
0
11
378.01017355277332
21
-336.50704857951951
31
0
0
LINE
5
729
100
AcDbEntity
8
0
100
AcDbLine
10
-528.07618625278963
20
-707.20240460199932
30
0
11
-524.87618625278958
21
-707.20240460199932
31
0
0
LINE
5
730
100
AcDbEntity
8
0
100
AcDbLine
10
-221.97627300347037
20
-693.1024046096029
30
0
11
-221.97641613475241
21
-696.30240460378502
31
0
0
LINE
5
731
100
AcDbEntity
8
0
100
AcDbLine
10
466.71741269159998
20
-698.05967093374966
30
0
11
463.51741269159993
21
-698.05967093374966
31
0
0
LINE
5
732
100
AcDbEntity
8
0
100
AcDbLine
10
-221.97641613475241
20
-696.30240460378502
30
0
11
-234.77629033563531
21
-696.30240460378502
31
0
0
LINE
5
733
100
AcDbEntity
8
0
100
AcDbLine
10
-9.876273121308401
20
-735.00769450635698
30
0
11
-6.6762999215880825
21
-735.00767361549367
31
0
0
LINE
5
734
100
AcDbEntity
8
0
100
AcDbLine
10
-430.57627300346962
20
-693.10240461620515
30
0
11
-338.77627300346973
21
-693.10240460975228
31
0
0
LINE
5
735
100
AcDbEntity
8
0
100
AcDbLine
10
466.71741269159998
20
-694.85967093374961
30
0
11
466.71741269159998
21
-698.05967093374966
31
0
0
LINE
5
736
100
AcDbEntity
8
0
100
AcDbLine
10
-443.37646394607884
20
-696.30240460199946
30
0
11
-443.37712233431461
21
-693.10240460199952
31
0
0
LINE
5
737
100
AcDbEntity
8
0
100
AcDbLine
10
312.80569276162032
20
-336.50915769339758
30
0
11
312.80622480491002
21
-333.3091566206873
31
0
0
LINE
5
738
100
AcDbEntity
8
0
100
AcDbLine
10
593.51003199230399
20
-403.00704750680922
30
0
11
590.3100961440764
21
-403.00715173880121
31
0
0
LINE
5
739
100
AcDbEntity
8
0
100
AcDbLine
10
117.00554363308385
20
-333.3091566206873
30
0
11
117.00556522878713
21
-336.50915769339758
31
0
0
LINE
5
740
100
AcDbEntity
8
0
100
AcDbLine
10
590.3100961440764
20
-389.80725519833686
30
0
11
593.51017355277327
21
-389.80749259560639
31
0
0
LINE
5
741
100
AcDbEntity
8
0
100
AcDbLine
10
590.3100961440764
20
-415.80707231239967
30
0
11
593.51017355277327
21
-415.80710066364691
31
0
0
LINE
5
742
100
AcDbEntity
8
0
100
AcDbLine
10
338.80571664178376
20
-333.3091566206873
30
0
11
352.00558412479484
21
-333.31057728152348
31
0
0
LINE
5
743
100
AcDbEntity
8
0
100
AcDbLine
10
129.80551089982492
20
-336.50915769339758
30
0
11
129.80558412479502
21
-333.30926373455867
31
0
0
LINE
5
744
100
AcDbEntity
8
0
100
AcDbLine
10
535.01023759424527
20
-336.50704857951951
30
0
11
547.81018705781423
21
-336.50704857951951
31
0
0
LINE
5
745
100
AcDbEntity
8
0
100
AcDbLine
10
326.0054420370376
20
-336.50915769339758
30
0
11
338.80564594492637
21
-336.50915769339758
31
0
0
LINE
5
746
100
AcDbEntity
8
0
100
AcDbLine
10
593.51017355277327
20
-415.80710066364691
30
0
11
593.51016686368598
21
-429.00704750680922
31
0
0
LINE
5
747
100
AcDbEntity
8
0
100
AcDbLine
10
590.3100961440764
20
-482.30679039647606
30
0
11
569.26017355277327
21
-482.30679039647606
31
0
0
LINE
5
748
100
AcDbEntity
8
0
100
AcDbLine
10
338.80564594492637
20
-336.50915769339758
30
0
11
338.80571664178376
21
-333.3091566206873
31
0
0
LINE
5
749
100
AcDbEntity
8
0
100
AcDbLine
10
95.555584124795132
20
-336.50915769339758
30
0
11
95.555584124795132
21
-333.30915769339759
31
0
0
LINE
5
750
100
AcDbEntity
8
0
100
AcDbLine
10
590.3100961440764
20
-429.00704750680922
30
0
11
590.3100961440764
21
-441.80704262547567
31
0
0
LINE
5
751
100
AcDbEntity
8
0
100
AcDbLine
10
535.01017355277338
20
-333.3071441329032
30
0
11
535.01023759424527
21
-336.50704857951951
31
0
0
LINE
5
752
100
AcDbEntity
8
0
100
AcDbLine
10
590.3100961440764
20
-356.55698331001304
30
0
11
593.51009614407633
21
-356.55704750680923
31
0
0
LINE
5
753
100
AcDbEntity
8
0
100
AcDbLine
10
260.80558412479479
20
-336.50915769339758
30
0
11
260.80558412479479
21
-333.30999392915487
31
0
0
LWPOLYLINE
5
754
100
AcDbEntity
8
0
100
AcDbPolyline
90
4
70
1
43
0.0
10
143.10558412479509
20
-428.8091566206873
10
139.90558412479515
20
-428.8091566206873
10
139.90558412479515
20
-442.00915662068724
10
143.10558412479509
20
-442.00915662068724
0
LINE
5
755
100
AcDbEntity
8
0
100
AcDbLine
10
593.51017355277327
20
-389.80749259560639
30
0
11
593.51003199230399
21
-403.00704750680922
31
0
0
LINE
5
756
100
AcDbEntity
8
0
100
AcDbLine
10
593.51017355277327
20
-377.00662566307517
30
0
11
590.3100961440764
21
-377.00685065862729
31
0
0
LWPOLYLINE
5
757
100
AcDbEntity
8
0
100
AcDbPolyline
90
4
70
1
43
0.0
10
526.01739999999995
20
-597.34805651007628
10
529.2174
20
-597.34805651007628
10
529.2174
20
-583.24805651007625
10
526.01739999999995
20
-583.24805651007625
0
LINE
5
758
100
AcDbEntity
8
0
100
AcDbLine
10
155.80558412479505
20
-336.50915769339758
30
0
11
155.80558412479505
21
-333.30954273441193
31
0
0
LINE
5
759
100
AcDbEntity
8
0
100
AcDbLine
10
155.80558412479505
20
-333.30954273441193
30
0
11
169.00558412479506
21
-333.30926367977042
31
0
0
LINE
5
760
100
AcDbEntity
8
0
100
AcDbLine
10
593.51015418719396
20
-441.80704750680923
30
0
11
593.51017355277327
21
-462.25689317259139
31
0
0
LINE
5
761
100
AcDbEntity
8
0
100
AcDbLine
10
569.26017355277327
20
-336.50704857951951
30
0
11
590.3100961440764
21
-336.50704857951951
31
0
0
LINE
5
762
100
AcDbEntity
8
0
100
AcDbLine
10
495.81017355277334
20
-336.50704857951951
30
0
11
495.81017355277334
21
-333.3071655902263
31
0
0
LINE
5
763
100
AcDbEntity
8
0
100
AcDbLine
10
378.00484282998696
20
-485.50915662068735
30
0
11
378.01552698251396
21
-485.50915662068735
31
0
0
LWPOLYLINE
5
764
100
AcDbEntity
8
0
100
AcDbPolyline
90
4
70
1
43
0.0
10
521.74967355277329
20
-479.50704750680927
10
524.94967355277322
20
-479.50704750680927
10
524.94967355277322
20
-462.05704750680911
10
521.74967355277329
20
-462.05704750680911
0
LINE
5
765
100
AcDbEntity
8
0
100
AcDbLine
10
590.3100961440764
20
-377.00685065862729
30
0
11
590.3100961440764
21
-389.80725519833686
31
0
0
LINE
5
766
100
AcDbEntity
8
0
100
AcDbLine
10
547.81018705781423
20
-336.50704857951951
30
0
11
547.81020249230562
21
-333.30704750680923
31
0
0
LINE
5
767
100
AcDbEntity
8
0
100
AcDbLine
10
547.81020249230562
20
-333.30704750680923
30
0
11
569.26017355277327
21
-333.30704777227169
31
0
0
LINE
5
768
100
AcDbEntity
8
0
100
AcDbLine
10
95.555584124795132
20
-333.30915769339759
30
0
11
117.00554363308385
21
-333.3091566206873
31
0
0
LWPOLYLINE
5
769
100
AcDbEntity
8
0
100
AcDbPolyline
90
4
70
1
43
0.0
10
521.74967355277329
20
-416.00704750680916
10
524.94967355277322
20
-416.00704750680916
10
524.94967355277322
20
-402.80704750680923
10
521.74967355277329
20
-402.80704750680923
0
LWPOLYLINE
5
770
100
AcDbEntity
8
0
100
AcDbPolyline
90
4
70
1
43
0.0
10
148.21740000000005
20
-611.04805650981984
10
148.21740000000005
20
-625.14805650981987
10
145.01740000000007
20
-625.14805650981987
10
145.01740000000007
20
-611.04805650981984
0
LINE
5
771
100
AcDbEntity
8
0
100
AcDbLine
10
286.80556918285907
20
-336.50915769339758
30
0
11
286.80558412479479
21
-333.3106165549853
31
0
0
LWPOLYLINE
5
772
100
AcDbEntity
8
0
100
AcDbPolyline
90
4
70
1
43
0.0
10
145.01740000000007
20
-597.3480565098198
10
145.01740000000007
20
-583.24805650981989
10
148.21740000000005
20
-583.24805650981989
10
148.21740000000005
20
-597.3480565098198
0
LINE
5
773
100
AcDbEntity
8
0
100
AcDbLine
10
590.3100961440764
20
-462.2578050948091
30
0
11
590.3100961440764
21
-482.30679039647606
31
0
0
LINE
5
774
100
AcDbEntity
8
0
100
AcDbLine
10
590.3100961440764
20
-336.50704857951951
30
0
11
590.3100961440764
21
-356.55698331001304
31
0
0
LINE
5
775
100
AcDbEntity
8
0
100
AcDbLine
10
300.00605008128485
20
-336.50915769339758
30
0
11
312.80569276162032
21
-336.50915769339758
31
0
0
LINE
5
776
100
AcDbEntity
8
0
100
AcDbLine
10
300.00543325928999
20
-333.3091566206873
30
0
11
300.00605008128485
21
-336.50915769339758
31
0
0
LINE
5
777
100
AcDbEntity
8
0
100
AcDbLine
10
590.3100961440764
20
-441.80704262547567
30
0
11
593.51015418719396
21
-441.80704750680923
31
0
0
LINE
5
778
100
AcDbEntity
8
0
100
AcDbLine
10
169.00558412479506
20
-333.30926367977042
30
0
11
169.00558412479484
21
-336.50915769339758
31
0
0
LINE
5
779
100
AcDbEntity
8
0
100
AcDbLine
10
364.80558412479468
20
-336.50915769339758
30
0
11
364.80558412479468
21
-333.30915903408908
31
0
0
LINE
5
780
100
AcDbEntity
8
0
100
AcDbLine
10
593.51017355277327
20
-462.25689317259139
30
0
11
590.3100961440764
21
-462.2578050948091
31
0
0
LWPOLYLINE
5
781
100
AcDbEntity
8
0
100
AcDbPolyline
90
4
70
1
43
0.0
10
148.21740000000005
20
-550.81349000178557
10
145.01740000000007
20
-550.81349000178557
10
145.01740000000007
20
-536.71349000178554
10
148.21740000000005
20
-536.71349000178554
0
LINE
5
782
100
AcDbEntity
8
0
100
AcDbLine
10
74.505584124795021
20
-336.50915769339758
30
0
11
95.555584124795132
21
-336.50915769339758
31
0
0
LINE
5
783
100
AcDbEntity
8
0
100
AcDbLine
10
509.01017355277332
20
-336.50704857951951
30
0
11
521.81017355277334
21
-336.50704857951951
31
0
0
LINE
5
784
100
AcDbEntity
8
0
100
AcDbLine
10
352.00558412479484
20
-333.31057728152348
30
0
11
352.00559508477852
21
-336.50915769339758
31
0
0
LINE
5
785
100
AcDbEntity
8
0
100
AcDbLine
10
286.80558412479479
20
-333.3106165549853
30
0
11
300.00543325928999
21
-333.3091566206873
31
0
0
LINE
5
786
100
AcDbEntity
8
0
100
AcDbLine
10
593.51016686368598
20
-429.00704750680922
30
0
11
590.3100961440764
21
-429.00704750680922
31
0
0
LINE
5
787
100
AcDbEntity
8
0
100
AcDbLine
10
593.51009614407633
20
-356.55704750680923
30
0
11
593.51017355277327
21
-377.00662566307517
31
0
0
LINE
5
788
100
AcDbEntity
8
0
100
AcDbLine
10
521.81017355277334
20
-336.50704857951951
30
0
11
521.81017355277334
21
-333.30745417650036
31
0
0
LINE
5
789
100
AcDbEntity
8
0
100
AcDbLine
10
326.00490387197897
20
-333.3091566206873
30
0
11
326.0054420370376
21
-336.50915769339758
31
0
0
LINE
5
790
100
AcDbEntity
8
0
100
AcDbLine
10
143.00592555169374
20
-336.50915769339758
30
0
11
155.80558412479505
21
-336.50915769339758
31
0
0
LINE
5
791
100
AcDbEntity
8
0
100
AcDbLine
10
495.81017355277334
20
-333.3071655902263
30
0
11
509.01017355277332
21
-333.30741349487761
31
0
0
LINE
5
792
100
AcDbEntity
8
0
100
AcDbLine
10
274.00667720863231
20
-336.50915769339758
30
0
11
286.80556918285907
21
-336.50915769339758
31
0
0
LINE
5
793
100
AcDbEntity
8
0
100
AcDbLine
10
352.00559508477852
20
-336.50915769339758
30
0
11
364.80558412479468
21
-336.50915769339758
31
0
0
LINE
5
794
100
AcDbEntity
8
0
100
AcDbLine
10
312.80622480491002
20
-333.3091566206873
30
0
11
326.00490387197897
21
-333.3091566206873
31
0
0
LWPOLYLINE
5
795
100
AcDbEntity
8
0
100
AcDbPolyline
90
4
70
1
43
0.0
10
143.10558412479509
20
-462.05915662068719
10
139.90558412479515
20
-462.05915662068719
10
139.90558412479515
20
-479.50915662068724
10
143.10558412479509
20
-479.50915662068724
0
LWPOLYLINE
5
796
100
AcDbEntity
8
0
100
AcDbPolyline
90
44
70
1
43
0.0
10
333.44898548400636
20
-807.55948999999998
10
333.44900053799267
20
-804.35949000000005
10
346.34897231187051
20
-804.35949000000005
10
346.3489756757678
20
-807.55948999999998
10
362.04897231187056
20
-807.55948999999998
10
362.04897231187056
20
-824.05948938761185
10
358.84897231187051
20
-824.05948971421913
10
358.84897231187051
20
-840.35949000000005
10
362.04895917652743
20
-840.35949000000005
10
362.04895917652743
20
-852.55944585635325
10
358.84897231187051
20
-852.55946939971352
10
358.84897231187051
20
-864.35944250526347
10
362.04891203580974
20
-864.35948999999994
10
362.04891203580974
20
-876.55948999999987
10
358.84897231187051
20
-876.55948999999987
10
358.84897231187051
20
-892.85931891391942
10
362.04883068852996
20
-892.85949000000005
10
362.04871293666031
20
-909.35948999999994
10
346.34882490918977
20
-909.35948999999994
10
346.34882490918977
20
-912.55948999999998
10
333.44897231187065
20
-912.55943750239328
10
333.44892945190765
20
-909.35948999999994
10
320.94895510773318
20
-909.35948999999994
10
320.94893544567361
20
-912.55948999999998
10
308.04897231187056
20
-912.55948999999998
10
308.04897081622437
20
-909.35948999999994
10
292.34897231187051
20
-909.35948999999994
10
292.34897231187051
20
-892.85949244935227
10
295.5489723118705
20
-892.85949114303003
10
295.5489723118705
20
-876.5595039835423
10
292.34898946684018
20
-876.55948999999987
10
292.34897231187051
20
-864.35954449389112
10
295.5489723118705
20
-864.35951543029557
10
295.5489723118705
20
-852.55954507809906
10
292.34904088704531
20
-852.55948999999998
10
292.34916738874995
20
-840.35949000000005
10
295.5489723118705
20
-840.35949000000005
10
295.5489723118705
20
-824.05955195424121
10
292.34897231187051
20
-824.05922042370037
10
292.34897231187051
20
-807.55948999999998
10
308.04910187357456
20
-807.55948999999998
10
308.04910187357456
20
-804.35949000000005
10
320.94897231187048
20
-804.35953526856451
10
320.94900832811072
20
-807.55948999999998
0
LWPOLYLINE
5
797
100
AcDbEntity
8
0
100
AcDbPolyline
90
4
70
1
43
0.0
10
143.10558412479509
20
-376.8091566206873
10
139.90558412479515
20
-376.8091566206873
10
139.90558412479515
20
-390.00915662068735
10
143.10558412479509
20
-390.00915662068735
0
LWPOLYLINE
5
798
100
AcDbEntity
8
0
100
AcDbPolyline
90
4
70
1
43
0.0
10
524.94967355277322
20
-428.80704750680923
10
521.74967355277329
20
-428.80704750680923
10
521.74967355277329
20
-442.00704750680927
10
524.94967355277322
20
-442.00704750680927
0
LWPOLYLINE
5
799
100
AcDbEntity
8
0
100
AcDbPolyline
90
4
70
1
43
0.0
10
526.01739999999995
20
-625.14805651007634
10
529.2174
20
-625.14805651007634
10
529.2174
20
-611.04805651007632
10
526.01739999999995
20
-611.04805651007632
0
LINE
5
800
100
AcDbEntity
8
0
100
AcDbLine
10
569.26017355277327
20
-333.30704777227169
30
0
11
569.26017355277327
21
-336.50704857951951
31
0
0
LINE
5
801
100
AcDbEntity
8
0
100
AcDbLine
10
260.80558412479479
20
-333.30999392915487
30
0
11
274.00558412479478
21
-333.3091576879151
31
0
0
LINE
5
802
100
AcDbEntity
8
0
100
AcDbLine
10
527.61739999999998
20
-508.91349000152707
30
0
11
529.2174
21
-508.91349000152707
31
0
0
LINE
5
803
100
AcDbEntity
8
0
100
AcDbLine
10
143.10558412479509
20
-356.75915662068735
30
0
11
143.10558412479509
21
-339.3091566206873
31
0
0
LINE
5
804
100
AcDbEntity
8
0
100
AcDbLine
10
378.00555095267566
20
-333.3091566206873
30
0
11
378.0055686444785
21
-336.50915769339758
31
0
0
LWPOLYLINE
5
805
100
AcDbEntity
8
0
100
AcDbPolyline
90
4
70
1
43
0.0
10
529.2174
20
-550.81349000152716
10
529.2174
20
-536.71349000152725
10
526.01739999999995
20
-536.71349000152725
10
526.01739999999995
20
-550.81349000152716
0
LINE
5
806
100
AcDbEntity
8
0
100
AcDbLine
10
590.3100961440764
20
-403.00715173880121
30
0
11
590.3100961440764
21
-415.80707231239967
31
0
0
LWPOLYLINE
5
807
100
AcDbEntity
8
0
100
AcDbPolyline
90
4
70
1
43
0.0
10
143.10558412479509
20
-416.00915662068729
10
143.10558412479509
20
-402.80915662068736
10
139.90558412479515
20
-402.80915662068736
10
139.90558412479515
20
-416.00915662068729
0
LINE
5
808
100
AcDbEntity
8
0
100
AcDbLine
10
527.61739999999998
20
-508.91349000152707
30
0
11
526.01739999999995
21
-508.91349000152707
31
0
0
LINE
5
809
100
AcDbEntity
8
0
100
AcDbLine
10
146.61740000000009
20
-508.91349000178536
30
0
11
148.21740000000005
21
-508.91349000178536
31
0
0
LINE
5
810
100
AcDbEntity
8
0
100
AcDbLine
10
529.2174
20
-508.91349000152707
30
0
11
526.01739999999995
21
-508.91349000152707
31
0
0
LINE
5
811
100
AcDbEntity
8
0
100
AcDbLine
10
524.94967355277322
20
-356.75704750680922
30
0
11
524.94967355277322
21
-339.30704750680917
31
0
0
LWPOLYLINE
5
812
100
AcDbEntity
8
0
100
AcDbPolyline
90
4
70
1
43
0.0
10
524.94967355277322
20
-390.00704750680927
10
524.94967355277322
20
-376.80704750680917
10
521.74967355277329
20
-376.80704750680917
10
521.74967355277329
20
-390.00704750680927
0
LINE
5
813
100
AcDbEntity
8
0
100
AcDbLine
10
139.90558412479515
20
-356.75915662068735
30
0
11
143.10558412479509
21
-356.75915662068735
31
0
0
LINE
5
814
100
AcDbEntity
8
0
100
AcDbLine
10
523.34967355277331
20
-479.50704750680927
30
0
11
521.74967355277329
21
-479.50704750680927
31
0
0
LINE
5
815
100
AcDbEntity
8
0
100
AcDbLine
10
529.2174
20
-523.01349000152709
30
0
11
529.2174
21
-508.91349000152707
31
0
0
LINE
5
816
100
AcDbEntity
8
0
100
AcDbLine
10
148.21740000000005
20
-523.0134900017855
30
0
11
145.01740000000007
21
-523.0134900017855
31
0
0
LINE
5
817
100
AcDbEntity
8
0
100
AcDbLine
10
143.10558412479509
20
-339.3091566206873
30
0
11
139.90558412479515
21
-339.3091566206873
31
0
0
LINE
5
818
100
AcDbEntity
8
0
100
AcDbLine
10
145.01740000000007
20
-508.91349000178536
30
0
11
148.21740000000005
21
-508.91349000178536
31
0
0
LINE
5
819
100
AcDbEntity
8
0
100
AcDbLine
10
145.01740000000007
20
-523.0134900017855
30
0
11
145.01740000000007
21
-508.91349000178536
31
0
0
LINE
5
820
100
AcDbEntity
8
0
100
AcDbLine
10
148.21740000000005
20
-508.91349000178536
30
0
11
148.21740000000005
21
-523.0134900017855
31
0
0
LINE
5
821
100
AcDbEntity
8
0
100
AcDbLine
10
521.74967355277329
20
-339.30704750680917
30
0
11
521.74967355277329
21
-356.75704750680922
31
0
0
LINE
5
822
100
AcDbEntity
8
0
100
AcDbLine
10
141.50558412479506
20
-339.3091566206873
30
0
11
143.10558412479509
21
-339.3091566206873
31
0
0
LINE
5
823
100
AcDbEntity
8
0
100
AcDbLine
10
524.94967355277322
20
-339.30704750680917
30
0
11
521.74967355277329
21
-339.30704750680917
31
0
0
LWPOLYLINE
5
824
100
AcDbEntity
8
0
100
AcDbPolyline
90
44
70
1
43
0.0
10
244.21738279586259
20
-909.35948999999994
10
244.21736313380308
20
-912.55948999999998
10
231.31740000000002
20
-912.55948999999998
10
231.31739850435395
20
-909.35948999999994
10
215.61739999999992
20
-909.35948999999994
10
215.61739999999992
20
-892.85949244935227
10
218.81740000000002
20
-892.85949114303003
10
218.81740000000002
20
-876.5595039835423
10
215.61741715496964
20
-876.55948999999987
10
215.61739999999992
20
-864.35954449389112
10
218.81740000000002
20
-864.35951543029557
10
218.81740000000002
20
-852.55954507809906
10
215.61746857517463
20
-852.55948999999998
10
215.61759507687918
20
-840.35949000000005
10
218.81740000000002
20
-840.35949000000005
10
218.81740000000002
20
-824.05955195424121
10
215.61739999999992
20
-824.05922042370037
10
215.61739999999992
20
-807.55948999999998
10
231.31752956170402
20
-807.55948999999998
10
231.31752956170402
20
-804.35949000000005
10
244.2174
20
-804.35953526856451
10
244.21743601624024
20
-807.55948999999998
10
256.71741317213588
20
-807.55948999999998
10
256.71742822612191
20
-804.35949000000005
10
269.61739999999992
20
-804.35949000000005
10
269.6174033638971
20
-807.55948999999998
10
285.31740000000002
20
-807.55948999999998
10
285.31740000000002
20
-824.05948938761185
10
282.11739999999992
20
-824.05948971421913
10
282.11739999999992
20
-840.35949000000005
10
285.31738686465678
20
-840.35949000000005
10
285.31738686465678
20
-852.55944585635325
10
282.11739999999992
20
-852.55946939971352
10
282.11739999999992
20
-864.35944250526347
10
285.31733972393903
20
-864.35948999999994
10
285.31733972393914
20
-876.55948999999987
10
282.11739999999992
20
-876.55948999999987
10
282.11739999999992
20
-892.85931891391942
10
285.31725837665908
20
-892.85949000000005
10
285.31714062478966
20
-909.35948999999994
10
269.61725259731912
20
-909.35948999999994
10
269.61725259731912
20
-912.55948999999998
10
256.7174
20
-912.55943750239328
10
256.71735714003717
20
-909.35948999999994
0
LINE
5
825
100
AcDbEntity
8
0
100
AcDbLine
10
523.34967355277331
20
-339.30704750680917
30
0
11
521.74967355277329
21
-339.30704750680917
31
0
0
LINE
5
826
100
AcDbEntity
8
0
100
AcDbLine
10
141.50558412479506
20
-339.3091566206873
30
0
11
139.90558412479515
21
-339.3091566206873
31
0
0
LINE
5
827
100
AcDbEntity
8
0
100
AcDbLine
10
526.01739999999995
20
-523.01349000152709
30
0
11
529.2174
21
-523.01349000152709
31
0
0
LINE
5
828
100
AcDbEntity
8
0
100
AcDbLine
10
526.01739999999995
20
-508.91349000152707
30
0
11
526.01739999999995
21
-523.01349000152709
31
0
0
LINE
5
829
100
AcDbEntity
8
0
100
AcDbLine
10
521.74967355277329
20
-356.75704750680922
30
0
11
524.94967355277322
21
-356.75704750680922
31
0
0
LINE
5
830
100
AcDbEntity
8
0
100
AcDbLine
10
146.61740000000009
20
-508.91349000178536
30
0
11
145.01740000000007
21
-508.91349000178536
31
0
0
LWPOLYLINE
5
831
100
AcDbEntity
8
0
100
AcDbPolyline
90
52
70
1
43
0.0
10
97.817399999999992
20
-912.38106553273497
10
97.817399999999992
20
-896.10949000000005
10
94.617529586563123
20
-896.10949000000005
10
94.617529586563123
20
-879.40951686262588
10
97.817399999999992
20
-879.40947443860978
10
97.817399999999992
20
-867.6097100620849
10
94.617438586112215
20
-867.60948999999994
10
94.617404285397768
20
-855.40949000000001
10
97.817399999999992
20
-855.40937767442847
10
97.817399999999992
20
-843.60949000000005
10
94.617401072709626
20
-843.60949000000005
10
94.617399999999918
20
-826.90961603323274
10
97.817399999999992
20
-826.90961603323274
10
97.817399999999992
20
-810.60949000000005
10
114.1176002427887
20
-810.60949000000005
10
114.11782909309132
20
-807.40949000000001
10
130.81725384318821
20
-807.40949000000001
10
130.81725384318821
20
-810.60949000000005
10
142.61739999999998
20
-810.60949000000005
10
142.61739999999998
20
-807.40959711379548
10
154.81739127671602
20
-807.40949000000001
10
154.81742587306002
20
-810.60949000000005
10
166.61739999999995
20
-810.60949000000005
10
166.61739999999995
20
-807.40951680027683
10
183.31739999999996
20
-807.40949964413062
10
183.31739999999996
20
-810.60949000000005
10
199.59259324841099
20
-810.60949000000005
10
199.59259324841099
20
-826.90949000000001
10
202.81734750515176
20
-826.90949000000001
10
202.81712609472373
20
-843.60949000000005
10
199.59259324841099
20
-843.60949000000005
10
199.59259324841099
20
-855.4098446640653
10
202.91591200781136
20
-855.41026938155824
42
-0.99745837481858912
10
202.94539511543798
20
-867.60817376040393
10
199.59259324841099
20
-867.60900914392153
10
199.59259324841099
20
-879.40931933990657
10
202.81739999999999
20
-879.40931933990657
10
202.81734750515176
20
-896.10949000000005
10
199.59259324841099
20
-896.10949000000005
10
199.59259324841099
20
-912.38106553273497
10
183.31739999999996
20
-912.38106553273497
10
183.31739999999996
20
-915.60924919041145
10
166.61739999999995
20
-915.60906229053842
10
166.61739999999995
20
-912.38106553273497
10
154.81740000000002
20
-912.38106553273497
10
154.81740000000002
20
-915.60938288620468
10
142.61740872328431
20
-915.60948999999994
10
142.61736321253579
20
-912.38106553273497
10
130.81739999999996
20
-912.38106553273497
10
130.81739999999996
20
-915.60946319972322
10
114.11739999999995
20
-915.5810655327349
10
114.11739999999995
20
-912.38106553273497
0
LINE
5
832
100
AcDbEntity
8
0
100
AcDbLine
10
139.90558412479515
20
-339.3091566206873
30
0
11
139.90558412479515
21
-356.75915662068735
31
0
0
LWPOLYLINE
5
833
100
AcDbEntity
8
0
100
AcDbPolyline
90
52
70
1
43
0.0
10
242.71743242569352
20
-780.35959470388502
10
242.71743857215924
20
-763.65959470388498
10
245.91776604606849
20
-763.65959470388498
10
245.91776604606849
20
-751.85939567828677
10
242.71739999999994
20
-751.85916816415431
10
242.71739999999994
20
-739.65959688506121
10
245.91776604606849
20
-739.65947187675783
10
245.91776604606849
20
-727.8596374002027
10
242.71065235093431
20
-727.8596374002027
10
242.71776604606862
20
-711.15959470388498
10
245.91776604606849
20
-711.15959470388498
10
245.91776604606849
20
-694.85966326047048
10
262.22078673171899
20
-694.85966326047048
10
262.22465765570848
20
-691.65959470388498
10
278.91739999999993
20
-691.65966326047044
10
278.91739999999993
20
-694.85966326047048
10
290.71739999999988
20
-694.85966326047048
10
290.71739999999988
20
-691.65971278721713
10
302.91739999999993
20
-691.6595957742677
10
302.91739999999999
20
-694.85966326047048
10
314.71739296969537
20
-694.85966326047048
10
314.71740000000005
20
-691.65992233879263
10
331.41729260198895
20
-691.65959470388498
10
331.41735086633207
20
-694.85966326047048
10
347.71721906622145
20
-694.85966326047048
10
347.71721906622145
20
-711.15959470388498
10
350.91721906622149
20
-711.15959470388498
10
350.91740000000004
20
-727.85958798658839
10
347.71721906622145
20
-727.85970390180069
10
347.71721906622145
20
-739.65960954168463
10
350.91740000000004
20
-739.65968674533531
10
350.91705344566731
20
-751.85959470388502
10
347.71721906622145
20
-751.85960481970528
10
347.71721906622145
20
-763.65943296282182
10
350.91739973180086
20
-763.65959470388498
10
350.91727043898794
20
-780.35959470388502
10
347.71721906622145
20
-780.35959470388502
10
347.71721906622145
20
-796.65948759009075
10
331.41737773217574
20
-796.65948759009075
10
331.4173522778982
20
-799.85959470388502
10
314.71776068259669
20
-799.85959470388502
10
314.71756803200543
20
-796.65948759009075
10
302.9176360511367
20
-796.65948759009075
10
302.91739999999999
20
-799.85958505264216
10
290.71739999999988
20
-799.85951731499858
10
290.71739999999988
20
-796.65948759009075
10
278.91739999999993
20
-796.65948759009075
10
278.91739999999993
20
-799.85948759009079
10
262.2174
20
-799.85948759009079
10
262.21740000000005
20
-796.65948759009075
10
245.91776604606849
20
-796.65948759009075
10
245.91776604606849
20
-780.35959470388502
0
LINE
5
834
100
AcDbEntity
8
0
100
AcDbLine
10
285.31740000000002
20
-824.05948938761185
30
0
11
282.11739999999992
21
-824.05948938761185
31
0
0
LINE
5
835
100
AcDbEntity
8
0
100
AcDbLine
10
215.61739999999992
20
-892.85949244935227
30
0
11
218.81740000000002
21
-892.85949244935227
31
0
0
LINE
5
836
100
AcDbEntity
8
0
100
AcDbLine
10
231.31752956170402
20
-807.55948999999998
30
0
11
231.31752956170402
21
-804.35949000000005
31
0
0
LINE
5
837
100
AcDbEntity
8
0
100
AcDbLine
10
523.34967355277331
20
-339.30704750680917
30
0
11
524.94967355277322
21
-339.30704750680917
31
0
0
LINE
5
838
100
AcDbEntity
8
0
100
AcDbLine
10
195.71738995285997
20
-796.65939741250656
30
0
11
183.21740768259042
21
-796.65939741250656
31
0
0
LINE
5
839
100
AcDbEntity
8
0
100
AcDbLine
10
195.71744152730034
20
-694.85956156292195
30
0
11
195.71747869748498
21
-691.65948417105983
31
0
0
LINE
5
840
100
AcDbEntity
8
0
100
AcDbLine
10
94.617399999999918
20
-826.90961603323274
30
0
11
97.817399999999992
21
-826.90961603323274
31
0
0
LINE
5
841
100
AcDbEntity
8
0
100
AcDbLine
10
114.11739999999995
20
-915.5810655327349
30
0
11
114.11739999999995
21
-912.38106553273497
31
0
0
LINE
5
842
100
AcDbEntity
8
0
100
AcDbLine
10
170.51740900560034
20
-780.15948581468706
30
0
11
170.51740900560034
21
-763.85949815460219
31
0
0
LINE
5
843
100
AcDbEntity
8
0
100
AcDbLine
10
170.51740900560034
20
-727.65948417105983
30
0
11
170.51740900560034
21
-711.3590965321473
31
0
0
LINE
5
844
100
AcDbEntity
8
0
100
AcDbLine
10
167.31740900560027
20
-691.65948417105983
30
0
11
183.17284906333873
21
-691.65948417105983
31
0
0
LINE
5
845
100
AcDbEntity
8
0
100
AcDbLine
10
269.61725259731912
20
-909.35948999999994
30
0
11
269.61725259731912
21
-912.55948999999998
31
0
0
LINE
5
846
100
AcDbEntity
8
0
100
AcDbLine
10
167.31740900560027
20
-799.85948417105988
30
0
11
167.31740900560027
21
-780.15948769312104
31
0
0
LINE
5
847
100
AcDbEntity
8
0
100
AcDbLine
10
167.31740900560027
20
-711.3590965321473
30
0
11
167.31740900560027
21
-691.65948417105983
31
0
0
LINE
5
848
100
AcDbEntity
8
0
100
AcDbLine
10
233.81740900560033
20
-727.6594744594704
30
0
11
237.01739587025713
21
-727.65948417105983
31
0
0
LINE
5
849
100
AcDbEntity
8
0
100
AcDbLine
10
208.61732607093705
20
-799.85948417105988
30
0
11
195.7174090056003
21
-799.85945738066005
31
0
0
LINE
5
850
100
AcDbEntity
8
0
100
AcDbLine
10
466.71744338815216
20
-774.35944536551062
30
0
11
463.51740000000007
21
-774.35902847648981
31
0
0
LINE
5
851
100
AcDbEntity
8
0
100
AcDbLine
10
237.01734872953944
20
-751.65948417105994
30
0
11
237.01719922707468
21
-763.85948417105988
31
0
0
LINE
5
852
100
AcDbEntity
8
0
100
AcDbLine
10
164.31740000000005
20
-711.35949264147382
30
0
11
161.11740000000003
21
-711.35949264147382
31
0
0
LINE
5
853
100
AcDbEntity
8
0
100
AcDbLine
10
466.71744338815216
20
-735.15943976938706
30
0
11
466.71744338815216
21
-715.10948999999994
31
0
0
LINE
5
854
100
AcDbEntity
8
0
100
AcDbLine
10
164.31725837665908
20
-799.85949352206126
30
0
11
148.41739999999993
21
-799.85940676350776
31
0
0
LINE
5
855
100
AcDbEntity
8
0
100
AcDbLine
10
94.617399999999918
20
-751.6595480159524
30
0
11
97.817399999999992
21
-751.65951895235685
31
0
0
LINE
5
856
100
AcDbEntity
8
0
100
AcDbLine
10
94.617399999999918
20
-799.85949352206126
30
0
11
94.617399999999918
21
-780.15949704412242
31
0
0
LINE
5
857
100
AcDbEntity
8
0
100
AcDbLine
10
237.01726738225949
20
-780.15948417105983
30
0
11
237.01726738225972
21
-799.85948417105988
31
0
0
LINE
5
858
100
AcDbEntity
8
0
100
AcDbLine
10
167.31760408247965
20
-727.65948417105983
30
0
11
170.51740900560034
21
-727.65948417105983
31
0
0
LINE
5
859
100
AcDbEntity
8
0
100
AcDbLine
10
463.51740000000001
20
-820.40949000000001
30
0
11
466.71744338815216
21
-820.40949000000001
31
0
0
LINE
5
860
100
AcDbEntity
8
0
100
AcDbLine
10
463.51744338815195
20
-715.10948999999994
30
0
11
463.51741269159993
21
-698.05967093374966
31
0
0
LINE
5
861
100
AcDbEntity
8
0
100
AcDbLine
10
167.31742616056999
20
-763.85948417105988
30
0
11
167.31740900560027
21
-751.65953866495101
31
0
0
LINE
5
862
100
AcDbEntity
8
0
100
AcDbLine
10
148.41740298081945
20
-694.85957091392322
30
0
11
148.41740638765501
21
-691.6594935220611
31
0
0
LINE
5
863
100
AcDbEntity
8
0
100
AcDbLine
10
221.11740900560028
20
-799.8593974125065
30
0
11
221.11733282740289
21
-796.65939741250656
31
0
0
LINE
5
864
100
AcDbEntity
8
0
100
AcDbLine
10
161.11740000000003
20
-763.85949352206114
30
0
11
161.11740000000003
21
-780.15949352206121
31
0
0
LINE
5
865
100
AcDbEntity
8
0
100
AcDbLine
10
466.71744338815216
20
-787.15949013998761
30
0
11
466.71744338815216
21
-774.35944536551062
31
0
0
LINE
5
866
100
AcDbEntity
8
0
100
AcDbLine
10
237.01739587025713
20
-727.65948417105983
30
0
11
237.01740900560031
21
-739.85944002741303
31
0
0
LINE
5
867
100
AcDbEntity
8
0
100
AcDbLine
10
183.21740768259042
20
-796.65939741250656
30
0
11
183.21740616553967
21
-799.85948417105988
31
0
0
LINE
5
868
100
AcDbEntity
8
0
100
AcDbLine
10
221.11733282740289
20
-796.65939741250656
30
0
11
208.61737030434369
21
-796.65939741250656
31
0
0
LINE
5
869
100
AcDbEntity
8
0
100
AcDbLine
10
183.2174090056003
20
-691.65956156292191
30
0
11
183.2174090056003
21
-694.85956156292195
31
0
0
LINE
5
870
100
AcDbEntity
8
0
100
AcDbLine
10
233.81740900560033
20
-739.85946357081855
30
0
11
233.81740900560033
21
-751.65943667632337
31
0
0
LINE
5
871
100
AcDbEntity
8
0
100
AcDbLine
10
170.51740900560034
20
-711.3590965321473
30
0
11
167.31740900560027
21
-711.3590965321473
31
0
0
LINE
5
872
100
AcDbEntity
8
0
100
AcDbLine
10
94.617399999999918
20
-691.6594935220611
30
0
11
110.47284005773832
21
-691.6594935220611
31
0
0
LINE
5
873
100
AcDbEntity
8
0
100
AcDbLine
10
123.01746969188478
20
-691.6594935220611
30
0
11
135.91740000000001
21
-691.65951522316368
31
0
0
LINE
5
874
100
AcDbEntity
8
0
100
AcDbLine
10
221.11741539325521
20
-691.65948417105983
30
0
11
237.01740900560031
21
-691.65948504840514
31
0
0
LINE
5
875
100
AcDbEntity
8
0
100
AcDbLine
10
170.51740900560034
20
-751.65950960135547
30
0
11
170.51740900560034
21
-739.85948417105988
31
0
0
LINE
5
876
100
AcDbEntity
8
0
100
AcDbLine
10
533.21739995665689
20
-840.65947285152856
30
0
11
519.3173680158136
21
-840.65947285152856
31
0
0
LINE
5
877
100
AcDbEntity
8
0
100
AcDbLine
10
110.51739867699006
20
-796.65940676350772
30
0
11
110.51739715993911
21
-799.85949352206126
31
0
0
LINE
5
878
100
AcDbEntity
8
0
100
AcDbLine
10
463.51740000000007
20
-774.35902847648981
30
0
11
463.51740000000001
21
-761.1598292258052
31
0
0
LINE
5
879
100
AcDbEntity
8
0
100
AcDbLine
10
94.617595076879155
20
-727.65949352206121
30
0
11
97.817399999999992
21
-727.65949352206121
31
0
0
LINE
5
880
100
AcDbEntity
8
0
100
AcDbLine
10
170.51740900560034
20
-739.85948417105988
30
0
11
167.31747758077489
21
-739.85948417105988
31
0
0
LINE
5
881
100
AcDbEntity
8
0
100
AcDbLine
10
477.41739999999993
20
-840.65947285152856
30
0
11
463.51739999999995
21
-840.65947285152856
31
0
0
LINE
5
882
100
AcDbEntity
8
0
100
AcDbLine
10
195.71747869748498
20
-691.65948417105983
30
0
11
208.61740900560028
21
-691.65950587216219
31
0
0
LINE
5
883
100
AcDbEntity
8
0
100
AcDbLine
10
221.1174119864198
20
-694.85956156292195
30
0
11
221.11741539325521
21
-691.65948417105983
31
0
0
LINE
5
884
100
AcDbEntity
8
0
100
AcDbLine
10
233.81740900560033
20
-763.85948417105988
30
0
11
233.81740900560033
21
-780.15948417105983
31
0
0
LINE
5
885
100
AcDbEntity
8
0
100
AcDbLine
10
491.51740000000012
20
-840.65947285152856
30
0
11
491.51740000000012
21
-843.85943748857949
31
0
0
LINE
5
886
100
AcDbEntity
8
0
100
AcDbLine
10
278.91739999999993
20
-691.65966326047044
30
0
11
278.91739999999993
21
-694.85966326047048
31
0
0
LINE
5
887
100
AcDbEntity
8
0
100
AcDbLine
10
167.31747758077489
20
-739.85948417105988
30
0
11
167.31760408247965
21
-727.65948417105983
31
0
0
LINE
5
888
100
AcDbEntity
8
0
100
AcDbLine
10
183.21740616553967
20
-799.85948417105988
30
0
11
167.31740900560027
21
-799.85948417105988
31
0
0
LINE
5
889
100
AcDbEntity
8
0
100
AcDbLine
10
233.81740900560033
20
-780.15948417105983
30
0
11
237.01726738225949
21
-780.15948417105983
31
0
0
LINE
5
890
100
AcDbEntity
8
0
100
AcDbLine
10
123.01740000000002
20
-799.85946673166131
30
0
11
123.01738094725984
21
-796.65940676350772
31
0
0
LINE
5
891
100
AcDbEntity
8
0
100
AcDbLine
10
237.01719922707468
20
-763.85948417105988
30
0
11
233.81740900560033
21
-763.85948417105988
31
0
0
LINE
5
892
100
AcDbEntity
8
0
100
AcDbLine
10
110.51740000000002
20
-691.65957091392329
30
0
11
110.51740000000002
21
-694.85957091392322
31
0
0
LINE
5
893
100
AcDbEntity
8
0
100
AcDbLine
10
135.91740000000001
20
-694.85957091392322
30
0
11
148.41740298081945
21
-694.85957091392322
31
0
0
LINE
5
894
100
AcDbEntity
8
0
100
AcDbLine
10
463.51740000000001
20
-837.45947285152852
30
0
11
463.51740000000001
21
-820.40949000000001
31
0
0
LINE
5
895
100
AcDbEntity
8
0
100
AcDbLine
10
164.31740000000005
20
-691.65949439940641
30
0
11
164.31740000000005
21
-711.35949264147382
31
0
0
LINE
5
896
100
AcDbEntity
8
0
100
AcDbLine
10
237.01740900560031
20
-739.85944002741303
30
0
11
233.81740900560033
21
-739.85946357081855
31
0
0
LINE
5
897
100
AcDbEntity
8
0
100
AcDbLine
10
97.817399999999992
20
-739.85949352206126
30
0
11
94.617468575174541
21
-739.85949352206126
31
0
0
LINE
5
898
100
AcDbEntity
8
0
100
AcDbLine
10
505.21742268041686
20
-843.85949000000005
30
0
11
505.21732709017391
21
-840.65947285152856
31
0
0
LINE
5
899
100
AcDbEntity
8
0
100
AcDbLine
10
208.61740900560028
20
-694.85956156292195
30
0
11
221.1174119864198
21
-694.85956156292195
31
0
0
LINE
5
900
100
AcDbEntity
8
0
100
AcDbLine
10
164.31740000000005
20
-739.85944937841441
30
0
11
161.11740000000003
21
-739.85947292181982
31
0
0
LINE
5
901
100
AcDbEntity
8
0
100
AcDbLine
10
195.7174090056003
20
-799.85945738066005
30
0
11
195.71738995285997
21
-796.65939741250656
31
0
0
LINE
5
902
100
AcDbEntity
8
0
100
AcDbLine
10
237.01726738225972
20
-799.85948417105988
30
0
11
221.11740900560028
21
-799.8593974125065
31
0
0
LINE
5
903
100
AcDbEntity
8
0
100
AcDbLine
10
167.31740900560027
20
-751.65953866495101
30
0
11
170.51740900560034
21
-751.65950960135547
31
0
0
LINE
5
904
100
AcDbEntity
8
0
100
AcDbLine
10
97.817399999999992
20
-711.35910588314857
30
0
11
94.617399999999918
21
-711.35910588314857
31
0
0
LINE
5
905
100
AcDbEntity
8
0
100
AcDbLine
10
161.11740000000003
20
-727.65948381047167
30
0
11
164.31738686465707
21
-727.65949352206121
31
0
0
LINE
5
906
100
AcDbEntity
8
0
100
AcDbLine
10
233.81740900560033
20
-711.35948329047255
30
0
11
233.81740900560033
21
-727.6594744594704
31
0
0
LINE
5
907
100
AcDbEntity
8
0
100
AcDbLine
10
237.01740900560031
20
-691.65948504840514
30
0
11
237.01740900560031
21
-711.35948329047255
31
0
0
LINE
5
908
100
AcDbEntity
8
0
100
AcDbLine
10
135.91736129874357
20
-796.65940676350772
30
0
11
135.91731706533687
21
-799.85949352206126
31
0
0
LINE
5
909
100
AcDbEntity
8
0
100
AcDbLine
10
208.61740900560028
20
-691.65950587216219
30
0
11
208.61740900560028
21
-694.85956156292195
31
0
0
LINE
5
910
100
AcDbEntity
8
0
100
AcDbLine
10
463.51740000000001
20
-787.15949059003822
30
0
11
466.71744338815216
21
-787.15949013998761
31
0
0
LINE
5
911
100
AcDbEntity
8
0
100
AcDbLine
10
94.617468575174541
20
-739.85949352206126
30
0
11
94.617595076879155
21
-727.65949352206121
31
0
0
LINE
5
912
100
AcDbEntity
8
0
100
AcDbLine
10
164.31719022147428
20
-763.85949352206114
30
0
11
161.11740000000003
21
-763.85949352206114
31
0
0
LINE
5
913
100
AcDbEntity
8
0
100
AcDbLine
10
97.817399999999992
20
-780.15949516568844
30
0
11
97.817399999999992
21
-763.85950750560357
31
0
0
LINE
5
914
100
AcDbEntity
8
0
100
AcDbLine
10
161.11740000000003
20
-751.65944602732463
30
0
11
164.31733972393886
21
-751.6594935220611
31
0
0
LINE
5
915
100
AcDbEntity
8
0
100
AcDbLine
10
466.71744338815216
20
-761.15959414968688
30
0
11
466.71744338815216
21
-748.35948414045129
31
0
0
LINE
5
916
100
AcDbEntity
8
0
100
AcDbLine
10
466.71744338815216
20
-800.35952177171021
30
0
11
463.51740000000007
21
-800.35937449987057
31
0
0
LINE
5
917
100
AcDbEntity
8
0
100
AcDbLine
10
164.31738686465707
20
-727.65949352206121
30
0
11
164.31740000000005
21
-739.85944937841441
31
0
0
LWPOLYLINE
5
918
100
AcDbEntity
8
0
100
AcDbPolyline
90
40
70
1
43
0.0
10
377.51740004334295
20
-748.35949241125479
10
380.71744343149504
20
-748.35950128892262
10
380.71744343149487
20
-761.15961129815844
10
377.51740004334295
20
-761.15984637427641
10
377.51740004334295
20
-774.35904562496125
10
380.71744343149504
20
-774.35946251398195
10
380.71744343149504
20
-787.15950728845928
10
377.51740004334295
20
-787.15950773850977
10
377.51740004334295
20
-800.35939164834201
10
380.71744343149504
20
-800.35953892018165
10
380.71744343149487
20
-820.40950714847145
10
377.51740004334295
20
-820.40950714847145
10
377.51740004334295
20
-837.45949000000007
10
380.71740004334299
20
-837.45949000000007
10
380.71740004334299
20
-840.65949000000001
10
391.41740004334281
20
-840.65949000000001
10
391.41740004334281
20
-843.85949000000005
10
405.51740004334306
20
-843.85945463705093
10
405.51740004334306
20
-840.65949000000001
10
419.21732713351702
20
-840.65949000000001
10
419.21742272375991
20
-843.85950714847138
10
433.31734904204382
20
-843.85950714847138
10
433.31736805915671
20
-840.65949000000001
10
447.21739999999988
20
-840.65949000000001
10
447.21740004108887
20
-694.85968808222106
10
433.31740004334307
20
-694.85968808222106
10
433.31740004334307
20
-691.65953394062456
10
419.2174000433431
20
-691.65954573457702
10
419.21740004334282
20
-694.85968808222106
10
405.51750100124264
20
-694.85968808222106
10
405.5173899615163
20
-691.65950714847145
10
391.41740004334281
20
-691.65968808222124
10
391.41740004334281
20
-694.85968808222106
10
380.71741273494297
20
-694.85968808222106
10
380.71741273494297
20
-698.05968808222121
10
377.51741273494298
20
-698.05968808222121
10
377.51744343149511
20
-715.10950714847138
10
380.71744343149504
20
-715.10950714847138
10
380.71744343149504
20
-735.15945691785862
10
377.51740004334295
20
-735.1595661090704
0
LINE
5
919
100
AcDbEntity
8
0
100
AcDbLine
10
208.61737030434369
20
-796.65939741250656
30
0
11
208.61732607093705
21
-799.85948417105988
31
0
0
LINE
5
920
100
AcDbEntity
8
0
100
AcDbLine
10
164.31733972393886
20
-751.6594935220611
30
0
11
164.31719022147428
21
-763.85949352206114
31
0
0
LINE
5
921
100
AcDbEntity
8
0
100
AcDbLine
10
505.2174
20
-691.65952858610558
30
0
11
519.31740000000002
21
-691.65951679215311
31
0
0
LINE
5
922
100
AcDbEntity
8
0
100
AcDbLine
10
505.2174
20
-694.85967093374961
30
0
11
505.2174
21
-691.65952858610558
31
0
0
LINE
5
923
100
AcDbEntity
8
0
100
AcDbLine
10
505.21732709017391
20
-840.65947285152856
30
0
11
491.51740000000012
21
-840.65947285152856
31
0
0
LINE
5
924
100
AcDbEntity
8
0
100
AcDbLine
10
477.41739999999993
20
-694.85967093374961
30
0
11
477.41739999999993
21
-691.65967093374957
31
0
0
LINE
5
925
100
AcDbEntity
8
0
100
AcDbLine
10
170.51740900560034
20
-763.85949815460219
30
0
11
167.31742616056999
21
-763.85948417105988
31
0
0
LINE
5
926
100
AcDbEntity
8
0
100
AcDbLine
10
135.91731706533687
20
-799.85949352206126
30
0
11
123.01740000000002
21
-799.85946673166131
31
0
0
LINE
5
927
100
AcDbEntity
8
0
100
AcDbLine
10
161.11740000000003
20
-739.85947292181982
30
0
11
161.11740000000003
21
-751.65944602732463
31
0
0
LINE
5
928
100
AcDbEntity
8
0
100
AcDbLine
10
477.41739999999993
20
-843.85947285152861
30
0
11
477.41739999999993
21
-840.65947285152856
31
0
0
LINE
5
929
100
AcDbEntity
8
0
100
AcDbLine
10
347.71721906622145
20
-711.15959470388498
30
0
11
350.91721906622149
21
-711.15959470388498
31
0
0
LINE
5
930
100
AcDbEntity
8
0
100
AcDbLine
10
94.617399999999918
20
-780.15949704412242
30
0
11
97.817399999999992
21
-780.15949516568844
31
0
0
LINE
5
931
100
AcDbEntity
8
0
100
AcDbLine
10
97.817399999999992
20
-763.85950750560357
30
0
11
94.617417154969488
21
-763.85949352206114
31
0
0
LINE
5
932
100
AcDbEntity
8
0
100
AcDbLine
10
94.617399999999918
20
-711.35910588314857
30
0
11
94.617399999999918
21
-691.6594935220611
31
0
0
LINE
5
933
100
AcDbEntity
8
0
100
AcDbLine
10
237.01740900560031
20
-711.35948329047255
30
0
11
233.81740900560033
21
-711.35948329047255
31
0
0
LINE
5
934
100
AcDbEntity
8
0
100
AcDbLine
10
183.2174090056003
20
-694.85956156292195
30
0
11
195.71744152730034
21
-694.85956156292195
31
0
0
LINE
5
935
100
AcDbEntity
8
0
100
AcDbLine
10
110.51739715993911
20
-799.85949352206126
30
0
11
94.617399999999918
21
-799.85949352206126
31
0
0
LINE
5
936
100
AcDbEntity
8
0
100
AcDbLine
10
519.3173680158136
20
-840.65947285152856
30
0
11
519.31734899870094
21
-843.85949000000005
31
0
0
LINE
5
937
100
AcDbEntity
8
0
100
AcDbLine
10
519.31740000000002
20
-691.65951679215311
30
0
11
519.31740000000002
21
-694.85967093374961
31
0
0
LINE
5
938
100
AcDbEntity
8
0
100
AcDbLine
10
491.51750095789964
20
-694.85967093374961
30
0
11
505.2174
21
-694.85967093374961
31
0
0
LINE
5
939
100
AcDbEntity
8
0
100
AcDbLine
10
466.71744338815216
20
-748.35948414045129
30
0
11
463.51740000000007
21
-748.35947526278323
31
0
0
LINE
5
940
100
AcDbEntity
8
0
100
AcDbLine
10
97.817399999999992
20
-751.65951895235685
30
0
11
97.817399999999992
21
-739.85949352206126
31
0
0
LINE
5
941
100
AcDbEntity
8
0
100
AcDbLine
10
463.51740000000007
20
-748.35947526278323
30
0
11
463.51740000000001
21
-735.15954896059884
31
0
0
LINE
5
942
100
AcDbEntity
8
0
100
AcDbLine
10
167.31740900560027
20
-780.15948769312104
30
0
11
170.51740900560034
21
-780.15948581468706
31
0
0
LINE
5
943
100
AcDbEntity
8
0
100
AcDbLine
10
148.41739999999993
20
-799.85940676350776
30
0
11
148.41732382180254
21
-796.65940676350772
31
0
0
LINE
5
944
100
AcDbEntity
8
0
100
AcDbLine
10
97.817399999999992
20
-727.65949352206121
30
0
11
97.817399999999992
21
-711.35910588314857
31
0
0
LINE
5
945
100
AcDbEntity
8
0
100
AcDbLine
10
148.41740638765501
20
-691.6594935220611
30
0
11
164.31740000000005
21
-691.65949439940641
31
0
0
LINE
5
946
100
AcDbEntity
8
0
100
AcDbLine
10
491.51740000000012
20
-843.85943748857949
30
0
11
477.41739999999993
21
-843.85947285152861
31
0
0
LINE
5
947
100
AcDbEntity
8
0
100
AcDbLine
10
233.81740900560033
20
-751.65943667632337
30
0
11
237.01734872953944
21
-751.65948417105994
31
0
0
LINE
5
948
100
AcDbEntity
8
0
100
AcDbLine
10
123.01743252169999
20
-694.85957091392322
30
0
11
123.01746969188478
21
-691.6594935220611
31
0
0
LINE
5
949
100
AcDbEntity
8
0
100
AcDbLine
10
123.01738094725984
20
-796.65940676350772
30
0
11
110.51739867699006
21
-796.65940676350772
31
0
0
LINE
5
950
100
AcDbEntity
8
0
100
AcDbLine
10
164.31725837665908
20
-780.15949352206121
30
0
11
164.31725837665908
21
-799.85949352206126
31
0
0
LINE
5
951
100
AcDbEntity
8
0
100
AcDbLine
10
477.41739999999993
20
-691.65967093374957
30
0
11
491.51738991817325
21
-691.65949000000001
31
0
0
LINE
5
952
100
AcDbEntity
8
0
100
AcDbLine
10
161.11740000000003
20
-780.15949352206121
30
0
11
164.31725837665908
21
-780.15949352206121
31
0
0
LINE
5
953
100
AcDbEntity
8
0
100
AcDbLine
10
466.71744338815216
20
-820.40949000000001
30
0
11
466.71744338815216
21
-800.35952177171021
31
0
0
LINE
5
954
100
AcDbEntity
8
0
100
AcDbLine
10
519.31734899870094
20
-843.85949000000005
30
0
11
505.21742268041686
21
-843.85949000000005
31
0
0
LINE
5
955
100
AcDbEntity
8
0
100
AcDbLine
10
466.71744338815216
20
-715.10948999999994
30
0
11
463.51744338815195
21
-715.10948999999994
31
0
0
LINE
5
956
100
AcDbEntity
8
0
100
AcDbLine
10
135.91740000000001
20
-691.65951522316368
30
0
11
135.91740000000001
21
-694.85957091392322
31
0
0
LINE
5
957
100
AcDbEntity
8
0
100
AcDbLine
10
798.42785042584046
20
-433.90782466755076
30
0
11
798.42785042584046
21
-447.80782466529661
31
0
0
LINE
5
958
100
AcDbEntity
8
0
100
AcDbLine
10
148.41732382180254
20
-796.65940676350772
30
0
11
135.91736129874357
21
-796.65940676350772
31
0
0
LINE
5
959
100
AcDbEntity
8
0
100
AcDbLine
10
491.51738991817325
20
-691.65949000000001
30
0
11
491.51750095789964
21
-694.85967093374961
31
0
0
LINE
5
960
100
AcDbEntity
8
0
100
AcDbLine
10
652.62804850806208
20
-433.90779268336445
30
0
11
649.42803135959048
21
-433.9077736662515
31
0
0
LINE
5
961
100
AcDbEntity
8
0
100
AcDbLine
10
672.87803135959075
20
-350.30791293610463
30
0
11
672.87803135959075
21
-353.50795632425678
31
0
0
LINE
5
962
100
AcDbEntity
8
0
100
AcDbLine
10
519.31740000000002
20
-694.85967093374961
30
0
11
533.21739999774604
21
-694.85967093374961
31
0
0
LINE
5
963
100
AcDbEntity
8
0
100
AcDbLine
10
744.92803721913913
20
-353.50795632425672
30
0
11
744.92804609680718
21
-350.30791293610463
31
0
0
LINE
5
964
100
AcDbEntity
8
0
100
AcDbLine
10
94.617417154969488
20
-763.85949352206114
30
0
11
94.617399999999918
21
-751.6595480159524
31
0
0
LINE
5
965
100
AcDbEntity
8
0
100
AcDbLine
10
466.71741269159998
20
-694.85967093374961
30
0
11
477.41739999999993
21
-694.85967093374961
31
0
0
LINE
5
966
100
AcDbEntity
8
0
100
AcDbLine
10
778.17803135959025
20
-350.30795632425679
30
0
11
798.42785042584057
21
-350.30792562770472
31
0
0
SPLINE
5
967
100
AcDbEntity
8
0
100
AcDbSpline
70
1064
71
3
72
30
73
26
74
0
42
0.000000001
43
0.0000000001
44
0.0000000001
40
0
40
0
40
0
40
0
40
0.0002147904587887956
40
0.00042948217859293506
40
0.00085856377049645756
40
0.001715532769309932
40
0.0025709388871080364
40
0.0034248138909848667
40
0.0051280801808331064
40
0.0068255931540842363
40
0.0085175923366128097
40
0.010204310772631536
40
0.013562685102898247
40
0.016902573553629424
40
0.02022561047764675
40
0.026826251802467491
40
0.033376686116734632
40
0.039886599736440161
40
0.05281040733069773
40
0.06565868991464778
40
0.078472468882208074
40
0.091286155194242186
40
0.10413413860527805
40
0.13005431262689238
40
0.1567972533074283
40
0.1567972533074283
40
0.1567972533074283
40
0.1567972533074283
10
162.54930000000002
20
-851.76999000000001
30
0
10
162.54858403166276
20
-851.7699895580497
30
0
10
162.54715242411805
20
-851.76998867435248
30
0
10
162.54429055745129
20
-851.76997921392035
30
0
10
162.53928817172962
20
-851.76994743413729
30
0
10
162.53215047325369
20
-851.76985609634562
30
0
10
162.52359814031229
20
-851.76967393831103
30
0
10
162.51222792567376
20
-851.76933480910952
30
0
10
162.49805784752851
20
-851.76873116529237
30
0
10
162.48111125946679
20
-851.76772020787371
30
0
10
162.46423922395985
20
-851.76642567464296
30
0
10
162.44187955667527
20
-851.76432788142722
30
0
10
162.41412134263584
20
-851.76101091755925
30
0
10
162.38109944291395
20
-851.75592798327375
30
0
10
162.33764656547137
20
-851.74773339929561
30
0
10
162.28421988715269
20
-851.73485127434355
30
0
10
162.2216250711071
20
-851.71527196847842
30
0
10
162.14079395069433
20
-851.68401068333299
30
0
10
162.04440663264862
20
-851.63543951639554
30
0
10
161.93762305251781
20
-851.56312342275555
30
0
10
161.84115716121909
20
-851.47811922255596
30
0
10
161.75606054875152
20
-851.38160651515932
30
0
10
161.65987618011926
20
-851.23894212755374
30
0
10
161.56980084194316
20
-851.03547765431108
30
0
10
161.55620442054271
20
-850.85940283578998
30
0
10
161.54930000000007
20
-850.76999000000001
30
0
0
LINE
5
968
100
AcDbEntity
8
0
100
AcDbLine
10
718.92849288310094
20
-350.30791293610463
30
0
11
732.12769213378556
21
-350.30791293610463
31
0
0
ELLIPSE
5
969
100
AcDbEntity
8
0
100
AcDbEllipse
10
498.36739999999998
20
-767.75948999999991
30
0
11
0
21
11.449999999999999
31
0.0
40
1
41
0
42
6.2831853071795862
0
SPLINE
5
970
100
AcDbEntity
8
0
100
AcDbSpline
70
1064
71
3
72
14
73
10
74
0
42
0.000000001
43
0.0000000001
44
0.0000000001
40
0
40
0
40
0
40
0
40
0.28284271247463194
40
0.28284272580763598
40
0.56568542885439665
40
0.56568544218739669
40
0.8485281452341551
40
0.84852815190115982
40
1.131370859661506
40
1.131370859661506
40
1.131370859661506
40
1.131370859661506
10
515.86730000000011
20
-752.25949000000003
30
0
10
515.33870440026749
20
-753.25948998332876
30
0
10
514.81010877561732
20
-754.25949001379672
30
0
10
512.9244911224788
20
-754.25948998620333
30
0
10
511.86729948147359
20
-753.20229896345541
30
0
10
511.86730051852635
20
-751.31668090321455
30
0
10
512.92449072773309
20
-750.25948998796844
30
0
10
514.81010935464883
20
-750.25949001203162
30
0
10
515.3387046835544
20
-751.25949001780157
30
0
10
515.86730000000011
20
-752.25949000000003
30
0
0
LINE
5
971
100
AcDbEntity
8
0
100
AcDbLine
10
652.62804850806219
20
-419.80775175772465
30
0
11
652.62804850806219
21
-406.10782466755091
31
0
0
LINE
5
972
100
AcDbEntity
8
0
100
AcDbLine
10
798.42785042584046
20
-406.10792562545043
30
0
11
798.42785042584046
21
-419.80782466755079
31
0
0
LINE
5
973
100
AcDbEntity
8
0
100
AcDbLine
10
692.92799958788055
20
-353.50795632425678
30
0
11
692.92814685972019
21
-350.30791293610463
31
0
0
LINE
5
974
100
AcDbEntity
8
0
100
AcDbLine
10
652.62804850806219
20
-406.10782466755091
30
0
11
649.42808387101104
21
-406.10782466755091
31
0
0
LINE
5
975
100
AcDbEntity
8
0
100
AcDbLine
10
533.21739999774604
20
-694.85967093374961
30
0
11
533.21739995665689
21
-840.65947285152856
31
0
0
LINE
5
976
100
AcDbEntity
8
0
100
AcDbLine
10
778.17803135959025
20
-350.30795632425679
30
0
11
778.17803135959025
21
-353.50795632425672
31
0
0
LINE
5
977
100
AcDbEntity
8
0
100
AcDbLine
10
732.12792720990365
20
-353.50795632425672
30
0
11
744.92803721913913
21
-353.50795632425672
31
0
0
LINE
5
978
100
AcDbEntity
8
0
100
AcDbLine
10
161.11740000000003
20
-711.35949264147382
30
0
11
161.11740000000003
21
-727.65948381047167
31
0
0
LINE
5
979
100
AcDbEntity
8
0
100
AcDbLine
10
652.62804850806208
20
-447.80782462420774
30
0
11
652.62804850806208
21
-433.90779268336445
31
0
0
LINE
5
980
100
AcDbEntity
8
0
100
AcDbLine
10
110.51740000000002
20
-694.85957091392322
30
0
11
123.01743252169999
21
-694.85957091392322
31
0
0
LINE
5
981
100
AcDbEntity
8
0
100
AcDbLine
10
463.51740000000001
20
-761.1598292258052
30
0
11
466.71744338815216
21
-761.15959414968688
31
0
0
LINE
5
982
100
AcDbEntity
8
0
100
AcDbLine
10
463.51740000000007
20
-800.35937449987057
30
0
11
463.51740000000001
21
-787.15949059003822
31
0
0
LINE
5
983
100
AcDbEntity
8
0
100
AcDbLine
10
801.62800456743707
20
-433.90782466755076
30
0
11
798.42785042584046
21
-433.90782466755076
31
0
0
LINE
5
984
100
AcDbEntity
8
0
100
AcDbLine
10
649.4280313595907
20
-419.80784734796771
30
0
11
652.62804850806219
21
-419.80775175772465
31
0
0
LINE
5
985
100
AcDbEntity
8
0
100
AcDbLine
10
284.0779
20
-732.0594900000001
30
0
11
284.0779
21
-708.65949000000001
31
0
0
SPLINE
5
986
100
AcDbEntity
8
0
100
AcDbSpline
70
1064
71
3
72
30
73
26
74
0
42
0.000000001
43
0.0000000001
44
0.0000000001
40
0
40
0
40
0
40
0
40
0.00021474902556756055
40
0.00042940198904471759
40
0.00085840667416316207
40
0.001715224264653406
40
0.0025704821455531613
40
0.0034242120420691397
40
0.0051271973425881584
40
0.0068244413416914864
40
0.0085161832305113982
40
0.010202655719406999
40
0.013560570906309277
40
0.016900041641019964
40
0.020222699688966235
40
0.026822690052006402
40
0.033372599423953389
40
0.039882096345996217
40
0.052805335440457749
40
0.065653318894008633
40
0.078467005337818488
40
0.091280784533600418
40
0.10412906745521908
40
0.13005073352152283
40
0.15679720921447723
40
0.15679720921447723
40
0.15679720921447723
40
0.15679720921447723
10
285.0779
20
-733.05948999999998
30
0
10
285.07718416977343
20
-733.05948955816621
30
0
10
285.07575282952746
20
-733.05948867469601
30
0
10
285.07289148651137
20
-733.05947921648863
30
0
10
285.06788999100343
20
-733.05944744386295
30
0
10
285.06075354757002
20
-733.05935612628775
30
0
10
285.05220269664892
20
-733.05917400835006
30
0
10
285.04083439514426
20
-733.05883495268199
30
0
10
285.02666663071534
20
-733.05823143797397
30
0
10
285.00972272568282
20
-733.05722069587409
30
0
10
284.99285325115807
20
-733.05592643498028
30
0
10
284.97049676588489
20
-733.05382907116768
30
0
10
284.94274224372464
20
-733.05051277041741
30
0
10
284.90972442653413
20
-733.04543084145939
30
0
10
284.86627617217664
20
-733.03723779183224
30
0
10
284.81285428587523
20
-733.02435796514806
30
0
10
284.75026399305011
20
-733.004782036601
30
0
10
284.66943642727836
20
-732.97352556064789
30
0
10
284.57305065088156
20
-732.92496104536372
30
0
10
284.46626532268533
20
-732.85265335295662
30
0
10
284.36979436794587
20
-732.76765643959163
30
0
10
284.2846904777424
20
-732.67114878125381
30
0
10
284.1884937250743
20
-732.52848511227057
30
0
10
284.09840302943655
20
-732.32500671320145
30
0
10
284.08480532544326
20
-732.14891480041513
30
0
10
284.0779
20
-732.0594900000001
30
0
0
LINE
5
987
100
AcDbEntity
8
0
100
AcDbLine
10
692.92814685972019
20
-350.30791293610463
30
0
11
706.12803076955242
21
-350.30791293610463
31
0
0
LINE
5
988
100
AcDbEntity
8
0
100
AcDbLine
10
463.51740000000001
20
-735.15954896059884
30
0
11
466.71744338815216
21
-735.15943976938706
31
0
0
SPLINE
5
989
100
AcDbEntity
8
0
100
AcDbSpline
70
1064
71
3
72
14
73
10
74
0
42
0.000000001
43
0.0000000001
44
0.0000000001
40
0
40
0
40
0
40
0
40
0.22450640302672059
40
0.22450641361071649
40
0.449012809153432
40
0.4490128197364327
40
0.6735192152798597
40
0.67351922057135671
40
0.89802561985642648
40
0.89802561985642648
40
0.89802561985642648
40
0.89802561985642648
10
326.8141
20
-781.95448999999996
30
0
10
327.23367249356897
20
-782.7482399689062
30
0
10
327.65324500691798
20
-783.54198997523224
30
0
10
329.14995507397515
20
-783.54199002476776
30
0
10
329.98909953187967
20
-782.7028446256802
30
0
10
329.98910046812034
20
-781.20613526848751
30
0
10
329.14995532853817
20
-780.36699001584395
30
0
10
327.65324460607451
20
-780.36698998415602
30
0
10
327.2336722980927
20
-781.16074000143215
30
0
10
326.8141
20
-781.95448999999996
30
0
0
SPLINE
5
990
100
AcDbEntity
8
0
100
AcDbSpline
70
1064
71
3
72
30
73
26
74
0
42
0.000000001
43
0.0000000001
44
0.0000000001
40
0
40
0
40
0
40
0
40
0.00021479045879590293
40
0.00042948217858582594
40
0.00085856377051776961
40
0.0017155327693312442
40
0.0025709388871222446
40
0.0034248138909991283
40
0.0051280801808472921
40
0.0068255931541198059
40
0.0085175923366410215
40
0.010204310772624873
40
0.013562685102891374
40
0.016902573553616341
40
0.02022561047766858
40
0.026826251802481164
40
0.033376686116708146
40
0.039886599736438266
40
0.052810407330686295
40
0.065658689914639329
40
0.078472468882183635
40
0.09128615519424052
40
0.10413413860528184
40
0.13005431262688408
40
0.15679725330742542
40
0.15679725330742542
40
0.15679725330742542
40
0.15679725330742542
10
111.61739999999995
20
-851.76999000000001
30
0
10
111.6166840316626
20
-851.7699895580497
30
0
10
111.61525242411805
20
-851.76998867435248
30
0
10
111.61239055745114
20
-851.76997921392035
30
0
10
111.60738817172927
20
-851.76994743413729
30
0
10
111.60025047325348
20
-851.76985609634562
30
0
10
111.59169814031202
20
-851.76967393831103
30
0
10
111.58032792567361
20
-851.76933480910952
30
0
10
111.56615784752802
20
-851.76873116529237
30
0
10
111.54921125946665
20
-851.76772020787371
30
0
10
111.53233922395948
20
-851.76642567464296
30
0
10
111.50997955667513
20
-851.76432788142711
30
0
10
111.48222134263584
20
-851.76101091755936
30
0
10
111.44919944291388
20
-851.75592798327352
30
0
10
111.4057465654713
20
-851.74773339929561
30
0
10
111.35231988715255
20
-851.73485127434355
30
0
10
111.28972507110703
20
-851.71527196847831
30
0
10
111.20889395069433
20
-851.6840106833331
30
0
10
111.11250663264848
20
-851.63543951639565
30
0
10
111.00572305251802
20
-851.56312342275567
30
0
10
110.90925716121909
20
-851.47811922255585
30
0
10
110.82416054875146
20
-851.38160651515943
30
0
10
110.72797618011933
20
-851.23894212755363
30
0
10
110.63790084194309
20
-851.03547765431085
30
0
10
110.6243044205425
20
-850.85940283578998
30
0
10
110.61739999999993
20
-850.76999000000001
30
0
0
SPLINE
5
991
100
AcDbEntity
8
0
100
AcDbSpline
70
1064
71
3
72
30
73
26
74
0
42
0.000000001
43
0.0000000001
44
0.0000000001
40
0
40
0
40
0
40
0
40
0.00021474902554624004
40
0.00042940198903053015
40
0.00085840667414894775
40
0.0017152242646391491
40
0.0025704821455674095
40
0.0034242120420762854
40
0.0051271973425882529
40
0.0068244413416913303
40
0.0085161832305114798
40
0.010202655719400358
40
0.013560570906309508
40
0.016900041641011956
40
0.020222699688966155
40
0.026822690051999519
40
0.033372599423938464
40
0.039882096346003496
40
0.052805335440450032
40
0.065653318894012186
40
0.078467005337821111
40
0.091280784533595852
40
0.1041290674552174
40
0.13005073352152441
40
0.15679720921447501
40
0.15679720921447501
40
0.15679720921447501
40
0.15679720921447501
10
307.55689999999993
20
-733.05948999999998
30
0
10
307.55618416977347
20
-733.05948955816621
30
0
10
307.5547528295275
20
-733.05948867469613
30
0
10
307.55189148651147
20
-733.05947921648851
30
0
10
307.54688999100352
20
-733.05944744386306
30
0
10
307.53975354757017
20
-733.05935612628775
30
0
10
307.53120269664873
20
-733.05917400835006
30
0
10
307.51983439514419
20
-733.05883495268199
30
0
10
307.50566663071527
20
-733.05823143797397
30
0
10
307.48872272568292
20
-733.05722069587421
30
0
10
307.47185325115794
20
-733.05592643498017
30
0
10
307.44949676588482
20
-733.05382907116768
30
0
10
307.42174224372462
20
-733.05051277041741
30
0
10
307.38872442653417
20
-733.04543084145939
30
0
10
307.34527617217668
20
-733.03723779183224
30
0
10
307.29185428587527
20
-733.02435796514806
30
0
10
307.22926399305004
20
-733.004782036601
30
0
10
307.14843642727851
20
-732.97352556064789
30
0
10
307.05205065088143
20
-732.92496104536372
30
0
10
306.94526532268526
20
-732.85265335295674
30
0
10
306.84879436794586
20
-732.76765643959163
30
0
10
306.7636904777425
20
-732.67114878125381
30
0
10
306.66749372507405
20
-732.52848511227057
30
0
10
306.57740302943665
20
-732.32500671320145
30
0
10
306.56380532544335
20
-732.14891480041513
30
0
10
306.55689999999998
20
-732.0594900000001
30
0
0
LINE
5
992
100
AcDbEntity
8
0
100
AcDbLine
10
111.61739999999995
20
-848.76999000000012
30
0
11
135.01740000000012
21
-848.76999000000012
31
0
0
LINE
5
993
100
AcDbEntity
8
0
100
AcDbLine
10
185.94929999999999
20
-874.24898999999994
30
0
11
162.54930000000002
21
-874.24898999999994
31
0
0
LINE
5
994
100
AcDbEntity
8
0
100
AcDbLine
10
652.62804850806219
20
-392.00782466755084
30
0
11
652.62804850806219
21
-378.3078246675509
31
0
0
LINE
5
995
100
AcDbEntity
8
0
100
AcDbLine
10
798.4278504258416
20
-661.70786925665072
30
0
11
801.62786757431286
21
-661.7078882737635
31
0
0
LINE
5
996
100
AcDbEntity
8
0
100
AcDbLine
10
801.62785042584164
20
-703.60783727246439
30
0
11
798.4278504258416
21
-703.60783727246439
31
0
0
LINE
5
997
100
AcDbEntity
8
0
100
AcDbLine
10
732.12769213378556
20
-350.30791293610463
30
0
11
732.12792720990365
21
-353.50795632425672
31
0
0
LINE
5
998
100
AcDbEntity
8
0
100
AcDbLine
10
161.54930000000007
20
-850.76999000000001
30
0
11
161.54930000000007
21
-849.76999000000001
31
0
0
LINE
5
999
100
AcDbEntity
8
0
100
AcDbLine
10
161.54930000000007
20
-873.24899000000005
30
0
11
161.54930000000007
21
-872.24898999999994
31
0
0
ELLIPSE
5
1000
100
AcDbEntity
8
0
100
AcDbEllipse
10
202.5976
20
-712.33309000000008
30
0
11
0
21
6.2230000000000008
31
0.0
40
1
41
0
42
6.2831853071795862
0
SPLINE
5
1001
100
AcDbEntity
8
0
100
AcDbSpline
70
1064
71
3
72
14
73
10
74
0
42
0.000000001
43
0.0000000001
44
0.0000000001
40
0
40
0
40
0
40
0
40
0.22450640302672814
40
0.22450641360973284
40
0.44901280915314423
40
0.44901281973613827
40
0.67351921527955716
40
0.67351922057105773
40
0.8980256198561124
40
0.8980256198561124
40
0.8980256198561124
40
0.8980256198561124
10
112.52239999999993
20
-891.50619000000006
30
0
10
113.31614995370941
20
-891.92576264670367
30
0
10
114.10989994483543
20
-892.34533531318561
30
0
10
114.10990005516432
20
-893.84204476770014
30
0
10
113.27075475826248
20
-894.68119012455179
30
0
10
111.77404513590737
20
-894.68118987544824
30
0
10
110.93489555624508
20
-893.84204474528485
30
0
10
110.93490444375504
20
-892.34533518932813
30
0
10
111.72865223123161
20
-891.92576258971951
30
0
10
112.52239999999993
20
-891.50619000000006
30
0
0
LINE
5
1002
100
AcDbEntity
8
0
100
AcDbLine
10
162.54930000000002
20
-848.76999000000012
30
0
11
185.94929999999999
21
-848.76999000000012
31
0
0
LINE
5
1003
100
AcDbEntity
8
0
100
AcDbLine
10
185.94929999999999
20
-851.76999000000001
30
0
11
162.54930000000002
21
-851.76999000000001
31
0
0
SPLINE
5
1004
100
AcDbEntity
8
0
100
AcDbSpline
70
1064
71
3
72
30
73
26
74
0
42
0.000000001
43
0.0000000001
44
0.0000000001
40
0
40
0
40
0
40
0
40
0.0002147490255604497
40
0.00042940198904826629
40
0.00085840667415426814
40
0.0017152242646301776
40
0.0025704821455495913
40
0.0034242120420837491
40
0.0051271973425828492
40
0.0068244413416919201
40
0.0085161832305033873
40
0.010202655719406597
40
0.01356057090630961
40
0.016900041641021917
40
0.020222699688967199
40
0.026822690051992698
40
0.033372599423934932
40
0.039882096345991679
40
0.052805335440455604
40
0.065653318894001958
40
0.078467005337811827
40
0.091280784533578685
40
0.10412906745522205
40
0.13005073352153046
40
0.15679720921447302
40
0.15679720921447302
40
0.15679720921447302
40
0.15679720921447302
10
186.94929999999999
20
-850.76999000000001
30
0
10
186.9492995581661
20
-850.77070583022646
30
0
10
186.94929867469602
20
-850.77213717047255
30
0
10
186.94928921648858
20
-850.77499851348864
30
0
10
186.9492574438631
20
-850.78000000899647
30
0
10
186.94916612628774
20
-850.78713645242965
30
0
10
186.94898400835029
20
-850.79568730335097
30
0
10
186.94864495268172
20
-850.8070556048558
30
0
10
186.94804143797413
20
-850.82122336928478
30
0
10
186.94703069587391
20
-850.83816727431713
30
0
10
186.94573643498046
20
-850.85503674884194
30
0
10
186.9436390711673
20
-850.87739323411506
30
0
10
186.94032277041757
20
-850.90514775627537
30
0
10
186.9352408414594
20
-850.93816557346588
30
0
10
186.92704779183245
20
-850.98161382782337
30
0
10
186.91416796514801
20
-851.03503571412466
30
0
10
186.89459203660101
20
-851.09762600694978
30
0
10
186.86333556064795
20
-851.17845357272142
30
0
10
186.81477104536356
20
-851.27483934911834
30
0
10
186.74246335295663
20
-851.38162467731468
30
0
10
186.65746643959181
20
-851.47809563205419
30
0
10
186.56095878125376
20
-851.56319952225749
30
0
10
186.41829511227058
20
-851.65939627492571
30
0
10
186.21481671320112
20
-851.74948697056334
30
0
10
186.03872480041508
20
-851.76308467455669
30
0
10
185.94929999999999
20
-851.76999000000001
30
0
0
LINE
5
1005
100
AcDbEntity
8
0
100
AcDbLine
10
744.92804609680718
20
-350.30791293610463
30
0
11
758.12797239899157
21
-350.30791293610463
31
0
0
SPLINE
5
1006
100
AcDbEntity
8
0
100
AcDbSpline
70
1064
71
3
72
30
73
26
74
0
42
0.000000001
43
0.0000000001
44
0.0000000001
40
0
40
0
40
0
40
0
40
0.00021482694541611456
40
0.00042955742410562552
40
0.00085871592207914873
40
0.0017158362816293905
40
0.0025713904804035978
40
0.0034254102753014598
40
0.0051289562518035715
40
0.0068267356627624192
40
0.0085189880010940501
40
0.010205946299480385
40
0.013564760581521659
40
0.016905036184570076
40
0.020228408106884768
40
0.026829567242528593
40
0.03338032582179034
40
0.039890385442205994
40
0.052814027683526325
40
0.065661694843540508
40
0.078474625671894657
40
0.091287463890419057
40
0.10413483201038509
40
0.13005530564085277
40
0.15680159501767266
40
0.15680159501767266
40
0.15680159501767266
40
0.15680159501767266
10
308.55689999999993
20
-707.65949000000001
30
0
10
308.55761608995925
20
-707.65949044183321
30
0
10
308.55904794832213
20
-707.65949132530079
30
0
10
308.56191032216913
20
-707.65950078349363
30
0
10
308.56691359803284
20
-707.65953255600164
30
0
10
308.57405255131056
20
-707.65962387320883
30
0
10
308.58260636616109
20
-707.65980599089698
30
0
10
308.59397849234756
20
-707.6601450450687
30
0
10
308.60815088087583
20
-707.66074855604859
30
0
10
308.62510015048963
20
-707.66175929621249
30
0
10
308.64197474558182
20
-707.66305355521138
30
0
10
308.66433757782545
20
-707.66515090242876
30
0
10
308.69209945460079
20
-707.66846716885834
30
0
10
308.72512542822471
20
-707.67354908492371
30
0
10
308.76858282093519
20
-707.68174201630484
30
0
10
308.8220141345148
20
-707.6946216158791
30
0
10
308.88461347169084
20
-707.71419749655911
30
0
10
308.96544777506233
20
-707.74545336135679
30
0
10
309.06183653940923
20
-707.79401708880357
30
0
10
309.16861907601503
20
-707.86632526596418
30
0
10
309.2650807157936
20
-707.95132288874333
30
0
10
309.35017067996614
20
-708.04783132295483
30
0
10
309.44634671976712
20
-708.19049711553839
30
0
10
309.53640731513332
20
-708.39397882246647
30
0
10
309.54999807061819
20
-708.57006592456287
30
0
10
309.55689999999998
20
-708.65949000000001
30
0
0
SPLINE
5
1007
100
AcDbEntity
8
0
100
AcDbSpline
70
1064
71
3
72
14
73
10
74
0
42
0.000000001
43
0.0000000001
44
0.0000000001
40
0
40
0
40
0
40
0
40
0.22450640302672123
40
0.22450641361072157
40
0.44901280915342701
40
0.44901281973642104
40
0.67351921527985315
40
0.67351922057135283
40
0.89802561985643381
40
0.89802561985643381
40
0.89802561985643381
40
0.89802561985643381
10
184.9124000000001
20
-831.51279
30
0
10
185.70614992675971
20
-831.09321732460569
30
0
10
186.49989989093945
20
-830.67364462943135
30
0
10
186.49990010906052
20
-829.1769352896755
30
0
10
185.66075445663458
20
-828.33778994770387
30
0
10
184.16404543753322
20
-828.33779005229621
30
0
10
183.32489905549949
20
-829.17693541311451
30
0
10
183.32490094450065
20
-830.67364465227274
30
0
10
184.11865048160456
20
-831.09321733108095
30
0
10
184.91240000000019
20
-831.51279
30
0
0
SPLINE
5
1008
100
AcDbEntity
8
0
100
AcDbSpline
70
1064
71
3
72
30
73
26
74
0
42
0.000000001
43
0.0000000001
44
0.0000000001
40
0
40
0
40
0
40
0
40
0.0002147904587887956
40
0.00042948217859293506
40
0.00085856377049644628
40
0.0017155327693170255
40
0.0025709388871224229
40
0.0034248138909706853
40
0.0051280801808259481
40
0.0068255931541056601
40
0.0085175923366128427
40
0.010204310772631236
40
0.013562685102891313
40
0.016902573553629244
40
0.02022561047764657
40
0.026826251802460403
40
0.033376686116734854
40
0.039886599736445733
40
0.052810407330680272
40
0.065658689914634305
40
0.07847246888218512
40
0.091286155194231292
40
0.10413413860525919
40
0.13005431262687922
40
0.15679725330741948
40
0.15679725330741948
40
0.15679725330741948
40
0.15679725330741948
10
162.54930000000002
20
-874.24898999999994
30
0
10
162.54858403166276
20
-874.24898955804974
30
0
10
162.547152424118
20
-874.2489886743524
30
0
10
162.54429055745135
20
-874.24897921392028
30
0
10
162.53928817172934
20
-874.24894743413745
30
0
10
162.53215047325364
20
-874.24885609634555
30
0
10
162.52359814031223
20
-874.24867393831096
30
0
10
162.5122279256739
20
-874.24833480910945
30
0
10
162.49805784752837
20
-874.24773116529241
30
0
10
162.48111125946707
20
-874.24672020787375
30
0
10
162.46423922395957
20
-874.24542567464289
30
0
10
162.44187955667547
20
-874.24332788142715
30
0
10
162.41412134263578
20
-874.24001091755929
30
0
10
162.38109944291395
20
-874.23492798327379
30
0
10
162.33764656547137
20
-874.22673339929565
30
0
10
162.28421988715274
20
-874.2138512743436
30
0
10
162.2216250711071
20
-874.19427196847846
30
0
10
162.14079395069427
20
-874.16301068333291
30
0
10
162.0444066326487
20
-874.11443951639569
30
0
10
161.93762305251809
20
-874.04212342275571
30
0
10
161.84115716121914
20
-873.95711922255589
30
0
10
161.75606054875169
20
-873.86060651515947
30
0
10
161.65987618011974
20
-873.71794212755344
30
0
10
161.56980084194282
20
-873.51447765431112
30
0
10
161.55620442054257
20
-873.33840283578991
30
0
10
161.54930000000007
20
-873.24899000000005
30
0
0
LWPOLYLINE
5
1009
100
AcDbEntity
8
0
100
AcDbPolyline
90
4
70
1
43
0.0
10
758.02809250844291
20
-389.05786878015618
10
761.02809250844291
20
-389.05786878015618
10
761.02809250844291
20
-359.05786878015635
10
758.02809250844291
20
-359.05786878015635
0
LINE
5
1010
100
AcDbEntity
8
0
100
AcDbLine
10
801.62799277348449
20
-419.80782466755079
30
0
11
801.62800456743707
21
-433.90782466755076
31
0
0
LINE
5
1011
100
AcDbEntity
8
0
100
AcDbLine
10
135.01740000000012
20
-851.76999000000001
30
0
11
111.61739999999995
21
-851.76999000000001
31
0
0
SPLINE
5
1012
100
AcDbEntity
8
0
100
AcDbSpline
70
1064
71
3
72
14
73
10
74
0
42
0.000000001
43
0.0000000001
44
0.0000000001
40
0
40
0
40
0
40
0
40
0.22450640302672029
40
0.22450641361071619
40
0.44901280915343045
40
0.44901281973642981
40
0.67351921527985881
40
0.67351922057135583
40
0.89802561985642682
40
0.89802561985642682
40
0.89802561985642682
40
0.89802561985642682
10
326.8141
20
-709.56449000000009
30
0
10
327.23367243060238
20
-710.35824001662081
30
0
10
327.65324488098474
20
-711.15199007066167
30
0
10
329.14995519990833
20
-711.15198992933824
30
0
10
329.98909953326717
20
-710.31284465986164
30
0
10
329.98910046673291
20
-708.8161352343061
30
0
10
329.14995557423396
20
-707.9769899631408
30
0
10
327.65324436037878
20
-707.97699003685921
30
0
10
327.23367217524492
20
-708.77074002778375
30
0
10
326.8141
20
-709.56449000000009
30
0
0
ELLIPSE
5
1013
100
AcDbEntity
8
0
100
AcDbEllipse
10
202.5976
20
-779.18588999999997
30
0
11
0
21
6.2230000000000008
31
0.0
40
1
41
0
42
6.2831853071795862
0
LINE
5
1014
100
AcDbEntity
8
0
100
AcDbLine
10
801.6280313595903
20
-406.10781458572399
30
0
11
798.42785042584046
21
-406.10792562545043
31
0
0
LINE
5
1015
100
AcDbEntity
8
0
100
AcDbLine
10
286.0779
20
-733.05948999999998
30
0
11
285.0779
21
-733.05948999999998
31
0
0
LINE
5
1016
100
AcDbEntity
8
0
100
AcDbLine
10
801.62785042584051
20
-392.00782466755078
30
0
11
801.6280313595903
21
-406.10781458572399
31
0
0
SPLINE
5
1017
100
AcDbEntity
8
0
100
AcDbSpline
70
1064
71
3
72
30
73
26
74
0
42
0.000000001
43
0.0000000001
44
0.0000000001
40
0
40
0
40
0
40
0
40
0.00021478798543773467
40
0.00042947970603496408
40
0.00085856129370770712
40
0.0017155302378764005
40
0.0025709361928043717
40
0.003424810873388947
40
0.0051280758466643525
40
0.0068255862696653142
40
0.0085175813006169547
40
0.010204293638360317
40
0.013562648750353071
40
0.016902506611455596
40
0.020225499632591067
40
0.026826007758882272
40
0.033376241351665385
40
0.039885884232456863
40
0.052808957888924785
40
0.065656325812198046
40
0.078469163966476754
40
0.091282094859006235
40
0.10412976221557141
40
0.1300517271615057
40
0.15680155052990058
40
0.15680155052990058
40
0.15680155052990058
40
0.15680155052990058
10
135.01740000000012
20
-848.76999000000012
30
0
10
135.01811596009276
20
-848.76999044173533
30
0
10
135.01954755939528
20
-848.76999132500782
30
0
10
135.02240941781758
20
-848.77000078111007
30
0
10
135.02741180342559
20
-848.77003254664317
30
0
10
135.03454950159858
20
-848.77012384389457
30
0
10
135.04310183435257
20
-848.77030592179585
30
0
10
135.05447204730024
20
-848.77064490284374
30
0
10
135.06864212197405
20
-848.77124828521914
30
0
10
135.08558870838442
20
-848.77225881066056
30
0
10
135.10246074230992
20
-848.77355279790845
30
0
10
135.12482039228581
20
-848.77564971648644
30
0
10
135.15257857684034
20
-848.77896532072612
30
0
10
135.18560046748718
20
-848.78404623253823
30
0
10
135.22905323648459
20
-848.7922376309316
30
0
10
135.28247975718728
20
-848.80511493383688
30
0
10
135.34507456999037
20
-848.82468743894367
30
0
10
135.42590531706713
20
-848.85593849660404
30
0
10
135.52229253742178
20
-848.90449557446777
30
0
10
135.6290768191738
20
-848.97679535194652
30
0
10
135.72554351952178
20
-849.06178568852795
30
0
10
135.81064075872632
20
-849.15828907341267
30
0
10
135.90682917908239
20
-849.30095414544871
30
0
10
135.9969051279092
20
-849.50444977308837
30
0
10
136.01049716591277
20
-849.68055396342777
30
0
10
136.01739999999992
20
-849.76999000000001
30
0
0
LINE
5
1018
100
AcDbEntity
8
0
100
AcDbLine
10
306.55689999999998
20
-732.0594900000001
30
0
11
306.55689999999998
21
-708.65949000000001
31
0
0
LWPOLYLINE
5
1019
100
AcDbEntity
8
0
100
AcDbPolyline
90
4
70
1
43
0.0
10
693.02809250844302
20
-359.05786878015635
10
693.02809250844302
20
-389.05786878015618
10
696.02809250844302
20
-389.05786878015618
10
696.02809250844302
20
-359.05786878015635
0
LINE
5
1020
100
AcDbEntity
8
0
100
AcDbLine
10
798.42537544053448
20
-364.20792540736107
30
0
11
798.42785042584057
21
-350.30792562770472
31
0
0
LWPOLYLINE
5
1021
100
AcDbEntity
8
0
100
AcDbPolyline
90
4
70
1
43
0.0
10
758.02809250844291
20
-439.05786878015618
10
758.02809250844291
20
-409.05786878015635
10
761.02809250844291
20
-409.05786878015635
10
761.02809250844302
20
-439.05786878015618
0
LINE
5
1022
100
AcDbEntity
8
0
100
AcDbLine
10
801.62786757431286
20
-661.7078882737635
30
0
11
801.62786757431286
21
-675.80781459204763
31
0
0
LINE
5
1023
100
AcDbEntity
8
0
100
AcDbLine
10
706.12803076955242
20
-350.30791293610463
30
0
11
706.12803121960314
21
-353.50795632425678
31
0
0
SPLINE
5
1024
100
AcDbEntity
8
0
100
AcDbSpline
70
1064
71
3
72
14
73
10
74
0
42
0.000000001
43
0.0000000001
44
0.0000000001
40
0
40
0
40
0
40
0
40
0.67351920908018825
40
0.67351923538318714
40
1.3470384258643424
40
1.3470384521673422
40
2.020557642648503
40
2.0205576558000042
40
2.6940768555806782
40
2.6940768555806782
40
2.6940768555806782
40
2.6940768555806782
10
502.85039999999992
20
-801.18588999999997
30
0
10
504.109117880773
20
-798.8046400539738
30
0
10
505.36783581070296
20
-796.4233900149527
30
0
10
509.85796439033027
20
-796.42338998504738
30
0
10
512.37539945914818
20
-798.94082612966463
30
0
10
512.37540054085184
20
-803.43095413336539
30
0
10
509.85796435064958
20
-805.94838989611742
30
0
10
505.36783548683701
20
-805.9483901038825
30
0
10
504.10911773112929
20
-803.56714002869251
30
0
10
502.85039999999992
20
-801.18588999999997
30
0
0
SPLINE
5
1025
100
AcDbEntity
8
0
100
AcDbSpline
70
1064
71
3
72
14
73
10
74
0
42
0.000000001
43
0.0000000001
44
0.0000000001
40
0
40
0
40
0
40
0
40
0.28284271247461185
40
0.28284272580761233
40
0.56568542885438422
40
0.56568544218738426
40
0.84852814523415265
40
0.84852815190115027
40
1.1313708596614815
40
1.1313708596614815
40
1.1313708596614815
40
1.1313708596614815
10
484.86729999999994
20
-752.25949000000003
30
0
10
484.33870452999304
20
-753.2594899811902
30
0
10
483.81010903506848
20
-754.2594900095196
30
0
10
481.92449086302787
20
-754.25948999048046
30
0
10
480.8672997733895
20
-753.2022989610806
30
0
10
480.86730022661061
20
-751.31668090558946
30
0
10
481.924490784125
20
-750.25948998789033
30
0
10
483.81010929825709
20
-750.25949001210972
30
0
10
484.33870465535841
20
-751.25949001784056
30
0
10
484.86729999999994
20
-752.25949000000003
30
0
0
SPLINE
5
1026
100
AcDbEntity
8
0
100
AcDbSpline
70
1064
71
3
72
30
73
26
74
0
42
0.000000001
43
0.0000000001
44
0.0000000001
40
0
40
0
40
0
40
0
40
0.00021474902556045726
40
0.00042940198904825111
40
0.00085840667415411657
40
0.0017152242646304801
40
0.0025704821455495913
40
0.0034242120420839607
40
0.0051271973425869128
40
0.0068244413416960643
40
0.0085161832305079357
40
0.010202655719411586
40
0.013560570906311837
40
0.016900041641020228
40
0.020222699688971203
40
0.026822690051993371
40
0.033372599423931358
40
0.039882096345994891
40
0.052805335440444447
40
0.065653318894005691
40
0.078467005337823609
40
0.091280784533580975
40
0.10412906745520868
40
0.13005073352150848
40
0.15679720921445081
40
0.15679720921445081
40
0.15679720921445081
40
0.15679720921445081
10
136.01739999999992
20
-850.76999000000001
30
0
10
136.01739955816606
20
-850.77070583022646
30
0
10
136.01739867469581
20
-850.77213717047255
30
0
10
136.0173892164886
20
-850.77499851348853
30
0
10
136.01735744386346
20
-850.78000000899647
30
0
10
136.01726612628761
20
-850.78713645242965
30
0
10
136.01708400835014
20
-850.79568730335109
30
0
10
136.01674495268156
20
-850.80705560485569
30
0
10
136.01614143797372
20
-850.82122336928478
30
0
10
136.01513069587412
20
-850.83816727431713
30
0
10
136.01383643498011
20
-850.85503674884194
30
0
10
136.0117390711676
20
-850.87739323411506
30
0
10
136.00842277041693
20
-850.90514775627526
30
0
10
136.00334084145942
20
-850.93816557346599
30
0
10
135.99514779183195
20
-850.98161382782337
30
0
10
135.98226796514786
20
-851.03503571412466
30
0
10
135.96269203660086
20
-851.09762600694978
30
0
10
135.9314355606476
20
-851.17845357272131
30
0
10
135.88287104536377
20
-851.27483934911857
30
0
10
135.81056335295642
20
-851.38162467731468
30
0
10
135.7255664395916
20
-851.47809563205396
30
0
10
135.62905878125363
20
-851.56319952225749
30
0
10
135.48639511227066
20
-851.65939627492594
30
0
10
135.28291671320147
20
-851.74948697056323
30
0
10
135.10682480041532
20
-851.76308467455669
30
0
10
135.01740000000012
20
-851.76999000000001
30
0
0
SPLINE
5
1027
100
AcDbEntity
8
0
100
AcDbSpline
70
1064
71
3
72
30
73
26
74
0
42
0.000000001
43
0.0000000001
44
0.0000000001
40
0
40
0
40
0
40
0
40
0.00021482694541434197
40
0.00042955742409678163
40
0.00085871592209686449
40
0.0017158362816149415
40
0.0025713904803985202
40
0.0034254102753069299
40
0.0051289562517947678
40
0.0068267356627392181
40
0.0085189880010986489
40
0.010205946299480647
40
0.013564760581516341
40
0.016905036184560841
40
0.020228408106874214
40
0.026829567242516873
40
0.033380325821790645
40
0.039890385442203788
40
0.052814027683540439
40
0.065661694843551749
40
0.078474625671900569
40
0.091287463890451309
40
0.10413483201037792
40
0.13005530564087547
40
0.15680159501767801
40
0.15680159501767801
40
0.15680159501767801
40
0.15680159501767801
10
110.61739999999993
20
-849.76999000000001
30
0
10
110.61740044183296
20
-849.76927391004074
30
0
10
110.61740132530069
20
-849.76784205167803
30
0
10
110.61741078349378
20
-849.76497967783087
30
0
10
110.61744255600146
20
-849.75997640196692
30
0
10
110.61753387320863
20
-849.75283744868943
30
0
10
110.61771599089703
20
-849.7442836338389
30
0
10
110.61805504506857
20
-849.73291150765249
30
0
10
110.6186585560485
20
-849.71873911912428
30
0
10
110.61966929621249
20
-849.70178984951053
30
0
10
110.62096355521085
20
-849.68491525441823
30
0
10
110.62306090242878
20
-849.66255242217471
30
0
10
110.6263771688586
20
-849.63479054539926
30
0
10
110.63145908492345
20
-849.60176457177545
30
0
10
110.63965201630467
20
-849.55830717906474
30
0
10
110.65253161587883
20
-849.50487586548536
30
0
10
110.67210749655899
20
-849.44227652830921
30
0
10
110.70336336135647
20
-849.36144222493749
30
0
10
110.75192708880358
20
-849.26505346059071
30
0
10
110.82423526596436
20
-849.15827092398501
30
0
10
110.90923288874365
20
-849.06180928420645
30
0
10
111.00574132295471
20
-848.97671932003368
30
0
10
111.1484071155386
20
-848.8805432802327
30
0
10
111.35188882246631
20
-848.79048268486645
30
0
10
111.52797592456281
20
-848.7768919293818
30
0
10
111.61739999999995
20
-848.76999000000012
30
0
0
SPLINE
5
1028
100
AcDbEntity
8
0
100
AcDbSpline
70
1064
71
3
72
30
73
26
74
0
42
0.000000001
43
0.0000000001
44
0.0000000001
40
0
40
0
40
0
40
0
40
0.00021474902555867334
40
0.00042940198904469086
40
0.00085840667415073809
40
0.0017152242646301091
40
0.0025704821455501282
40
0.0034242120420836502
40
0.0051271973425877724
40
0.0068244413416972665
40
0.0085161832305051914
40
0.010202655719408401
40
0.01356057090630965
40
0.016900041641018444
40
0.020222699688968535
40
0.026822690051987251
40
0.033372599423933301
40
0.039882096345990048
40
0.052805335440450775
40
0.06565331889399964
40
0.078467005337812173
40
0.091280784533579018
40
0.10412906745522636
40
0.13005073352152546
40
0.15679720921447482
40
0.15679720921447482
40
0.15679720921447482
40
0.15679720921447482
10
186.94929999999999
20
-873.24899000000005
30
0
10
186.94929955816619
20
-873.2497058302265
30
0
10
186.94929867469591
20
-873.25113717047259
30
0
10
186.94928921648895
20
-873.25399851348845
30
0
10
186.94925744386282
20
-873.25900000899651
30
0
10
186.9491661262883
20
-873.26613645242969
30
0
10
186.94898400834973
20
-873.27468730335113
30
0
10
186.94864495268212
20
-873.28605560485573
30
0
10
186.94804143797413
20
-873.30022336928482
30
0
10
186.94703069587376
20
-873.31716727431717
30
0
10
186.9457364349806
20
-873.33403674884198
30
0
10
186.94363907116724
20
-873.3563932341151
30
0
10
186.94032277041757
20
-873.38414775627541
30
0
10
186.9352408414594
20
-873.41716557346581
30
0
10
186.92704779183236
20
-873.46061382782341
30
0
10
186.91416796514815
20
-873.5140357141247
30
0
10
186.89459203660093
20
-873.57662600694971
30
0
10
186.86333556064795
20
-873.65745357272147
30
0
10
186.81477104536361
20
-873.75383934911838
30
0
10
186.74246335295663
20
-873.8606246773146
30
0
10
186.65746643959181
20
-873.95709563205412
30
0
10
186.56095878125376
20
-874.04219952225742
30
0
10
186.41829511227058
20
-874.13839627492575
30
0
10
186.2148167132014
20
-874.22848697056338
30
0
10
186.03872480041508
20
-874.24208467455674
30
0
10
185.94929999999999
20
-874.24898999999994
30
0
0
LINE
5
1029
100
AcDbEntity
8
0
100
AcDbLine
10
162.54930000000002
20
-871.24899000000005
30
0
11
185.94929999999999
21
-871.24899000000005
31
0
0
SPLINE
5
1030
100
AcDbEntity
8
0
100
AcDbSpline
70
1064
71
3
72
30
73
26
74
0
42
0.000000001
43
0.0000000001
44
0.0000000001
40
0
40
0
40
0
40
0
40
0.00021479045879590483
40
0.00042948217858582215
40
0.00085856377051775454
40
0.0017155327693312516
40
0.0025709388871224034
40
0.0034248138909990749
40
0.0051280801808472392
40
0.0068255931540915932
40
0.0085175923366201667
40
0.010204310772617669
40
0.013562685102891225
40
0.01690257355361565
40
0.020225610477654254
40
0.026826251802481486
40
0.033376686116728817
40
0.039886599736425797
40
0.052810407330673027
40
0.065658689914636831
40
0.078472468882179958
40
0.091286155194238189
40
0.10413413860527448
40
0.13005431262688064
40
0.15679725330741845
40
0.15679725330741845
40
0.15679725330741845
40
0.15679725330741845
10
111.61739999999995
20
-874.24898999999994
30
0
10
111.6166840316626
20
-874.24898955804974
30
0
10
111.61525242411798
20
-874.2489886743524
30
0
10
111.61239055745135
20
-874.24897921392039
30
0
10
111.60738817172913
20
-874.24894743413734
30
0
10
111.60025047325362
20
-874.24885609634555
30
0
10
111.59169814031202
20
-874.24867393831096
30
0
10
111.58032792567361
20
-874.24833480910945
30
0
10
111.56615784752816
20
-874.24773116529252
30
0
10
111.54921125946686
20
-874.24672020787352
30
0
10
111.5323392239597
20
-874.24542567464289
30
0
10
111.50997955667521
20
-874.24332788142715
30
0
10
111.48222134263584
20
-874.2400109175594
30
0
10
111.44919944291395
20
-874.23492798327356
30
0
10
111.40574656547123
20
-874.22673339929565
30
0
10
111.35231988715262
20
-874.2138512743436
30
0
10
111.28972507110703
20
-874.19427196847835
30
0
10
111.20889395069433
20
-874.16301068333291
30
0
10
111.11250663264869
20
-874.11443951639558
30
0
10
111.00572305251795
20
-874.04212342275571
30
0
10
110.90925716121916
20
-873.95711922255589
30
0
10
110.82416054875154
20
-873.86060651515947
30
0
10
110.72797618011926
20
-873.71794212755367
30
0
10
110.63790084194309
20
-873.51447765431089
30
0
10
110.6243044205425
20
-873.33840283578991
30
0
10
110.61739999999993
20
-873.24899000000005
30
0
0
SPLINE
5
1031
100
AcDbEntity
8
0
100
AcDbSpline
70
1064
71
3
72
30
73
26
74
0
42
0.000000001
43
0.0000000001
44
0.0000000001
40
0
40
0
40
0
40
0
40
0.00021478798542863087
40
0.00042947970602937892
40
0.00085856129370672158
40
0.0017155302378860267
40
0.0025709361928018589
40
0.0034248108734038721
40
0.0051280758466533223
40
0.0068255862696639203
40
0.0085175813006176174
40
0.010204293638352745
40
0.013562648750356792
40
0.016902506611455891
40
0.020225499632607731
40
0.026826007758882327
40
0.033376241351658016
40
0.039885884232460735
40
0.052808957888938357
40
0.065656325812214048
40
0.078469163966481598
40
0.091282094859024332
40
0.10412976221559289
40
0.13005172716151567
40
0.15680155052991296
40
0.15680155052991296
40
0.15680155052991296
40
0.15680155052991296
10
287.07789999999994
20
-732.0594900000001
30
0
10
287.07789955826462
20
-732.06020596009262
30
0
10
287.07789867499201
20
-732.06163755939519
30
0
10
287.07788921889011
20
-732.06449941781739
30
0
10
287.07785745335633
20
-732.06950180342551
30
0
10
287.07776615610544
20
-732.07663950159849
30
0
10
287.07758407820421
20
-732.0851918343526
30
0
10
287.07724509715661
20
-732.09656204730004
30
0
10
287.07664171478081
20
-732.11073212197402
30
0
10
287.07563118933962
20
-732.12767870838411
30
0
10
287.07433720209139
20
-732.14455074230955
30
0
10
287.07224028351357
20
-732.16691039228579
30
0
10
287.06892467927389
20
-732.19466857684006
30
0
10
287.06384376746189
20
-732.22769046748726
30
0
10
287.05565236906858
20
-732.27114323648448
30
0
10
287.04277506616273
20
-732.32456975718708
30
0
10
287.02320256105645
20
-732.38716456999032
30
0
10
286.99195150339585
20
-732.46799531706711
30
0
10
286.94339442553246
20
-732.56438253742192
30
0
10
286.8710946480536
20
-732.67116681917378
30
0
10
286.78610431147183
20
-732.76763351952184
30
0
10
286.68960092658745
20
-732.85273075872624
30
0
10
286.54693585455135
20
-732.9489191790824
30
0
10
286.34344022691175
20
-733.03899512790952
30
0
10
286.16733603657246
20
-733.05258716591288
30
0
10
286.0779
20
-733.05948999999998
30
0
0
LINE
5
1032
100
AcDbEntity
8
0
100
AcDbLine
10
136.01739999999992
20
-849.76999000000001
30
0
11
136.01739999999992
21
-850.76999000000001
31
0
0
LINE
5
1033
100
AcDbEntity
8
0
100
AcDbLine
10
186.94929999999999
20
-872.24898999999994
30
0
11
186.94929999999999
21
-873.24899000000005
31
0
0
SPLINE
5
1034
100
AcDbEntity
8
0
100
AcDbSpline
70
1064
71
3
72
14
73
10
74
0
42
0.000000001
43
0.0000000001
44
0.0000000001
40
0
40
0
40
0
40
0
40
0.22450640302672065
40
0.22450641361071655
40
0.44901280915343189
40
0.44901281973643187
40
0.67351921527985903
40
0.67351922057135605
40
0.89802561985642559
40
0.89802561985642559
40
0.89802561985642559
40
0.89802561985642559
10
326.8141
20
-745.75948999999991
30
0
10
327.23367255653557
20
-746.55323999120856
30
0
10
327.65324513285117
20
-747.34699001983722
30
0
10
329.14995494804197
20
-747.34698998016268
30
0
10
329.98909978386462
20
-746.50784461381409
30
0
10
329.98910021613534
20
-745.01113528035353
30
0
10
329.14995532853817
20
-744.17198997617322
30
0
10
327.65324460607451
20
-744.17199002382677
30
0
10
327.23367229809276
20
-744.96574002126749
30
0
10
326.8141
20
-745.75948999999991
30
0
0
LINE
5
1035
100
AcDbEntity
8
0
100
AcDbLine
10
309.55689999999998
20
-708.65949000000001
30
0
11
309.55689999999998
21
-732.0594900000001
31
0
0
SPLINE
5
1036
100
AcDbEntity
8
0
100
AcDbSpline
70
1064
71
3
72
30
73
26
74
0
42
0.000000001
43
0.0000000001
44
0.0000000001
40
0
40
0
40
0
40
0
40
0.00021478798545905095
40
0.00042947970605628036
40
0.00085856129372191808
40
0.0017155302378764016
40
0.0025709361927972693
40
0.0034248108733818446
40
0.0051280758466572506
40
0.0068255862696654105
40
0.0085175813006169148
40
0.010204293638345963
40
0.013562648750352617
40
0.016902506611462434
40
0.02022549963261154
40
0.026826007758895837
40
0.033376241351652881
40
0.039885884232465522
40
0.052808957888950882
40
0.065656325812208483
40
0.078469163966481861
40
0.091282094859028787
40
0.10412976221559647
40
0.13005172716152799
40
0.1568015505299219
40
0.1568015505299219
40
0.1568015505299219
40
0.1568015505299219
10
185.94929999999999
20
-848.76999000000012
30
0
10
185.95001596009274
20
-848.76999044173533
30
0
10
185.95144755939529
20
-848.76999132500782
30
0
10
185.95430941781763
20
-848.77000078111007
30
0
10
185.95931180342552
20
-848.77003254664317
30
0
10
185.96644950159856
20
-848.77012384389457
30
0
10
185.9750018343525
20
-848.77030592179585
30
0
10
185.98637204729997
20
-848.77064490284374
30
0
10
186.00054212197406
20
-848.77124828521914
30
0
10
186.01748870838412
20
-848.77225881066056
30
0
10
186.03436074230956
20
-848.77355279790845
30
0
10
186.05672039228565
20
-848.77564971648644
30
0
10
186.08447857684013
20
-848.77896532072612
30
0
10
186.11750046748716
20
-848.78404623253812
30
0
10
186.16095323648443
20
-848.7922376309316
30
0
10
186.21437975718734
20
-848.80511493383688
30
0
10
186.27697456999016
20
-848.82468743894378
30
0
10
186.35780531706715
20
-848.85593849660404
30
0
10
186.45419253742182
20
-848.90449557446777
30
0
10
186.56097681917367
20
-848.97679535194675
30
0
10
186.65744351952185
20
-849.06178568852806
30
0
10
186.74254075872639
20
-849.15828907341256
30
0
10
186.83872917908261
20
-849.30095414544871
30
0
10
186.92880512790936
20
-849.50444977308837
30
0
10
186.94239716591284
20
-849.68055396342777
30
0
10
186.94929999999999
20
-849.76999000000001
30
0
0
SPLINE
5
1037
100
AcDbEntity
8
0
100
AcDbSpline
70
1064
71
3
72
14
73
10
74
0
42
0.000000001
43
0.0000000001
44
0.0000000001
40
0
40
0
40
0
40
0
40
0.22450640302672029
40
0.22450641360972853
40
0.44901280915313113
40
0.4490128197361305
40
0.67351921527954439
40
0.67351922057104141
40
0.8980256198561124
40
0.8980256198561124
40
0.8980256198561124
40
0.8980256198561124
10
266.82069999999987
20
-709.56449000000009
30
0
10
266.40112714278803
20
-710.35824001535445
30
0
10
265.98155426579797
20
-711.15199006812543
30
0
10
264.48484565331626
20
-711.15198993187448
30
0
10
263.64569987483719
20
-710.31284467417117
30
0
10
263.64570012516299
20
-708.81613521999884
30
0
10
264.48484444696595
20
-707.97699002912293
30
0
10
265.98155561842111
20
-707.97698997087707
30
0
10
266.40112781415507
20
-708.77073999479262
30
0
10
266.82069999999987
20
-709.56449000000009
30
0
0
LINE
5
1038
100
AcDbEntity
8
0
100
AcDbLine
10
186.94929999999999
20
-849.76999000000001
30
0
11
186.94929999999999
21
-850.76999000000001
31
0
0
SPLINE
5
1039
100
AcDbEntity
8
0
100
AcDbSpline
70
1064
71
3
72
30
73
26
74
0
42
0.000000001
43
0.0000000001
44
0.0000000001
40
0
40
0
40
0
40
0
40
0.00021478798542352571
40
0.0004294797060420713
40
0.00085856129371479162
40
0.0017155302378764254
40
0.0025709361927971795
40
0.0034248108733818078
40
0.0051280758466643881
40
0.0068255862696515865
40
0.00851758130061726
40
0.010204293638346308
40
0.013562648750359596
40
0.016902506611469414
40
0.020225499632604227
40
0.026826007758896264
40
0.033376241351659564
40
0.039885884232453601
40
0.052808957888946906
40
0.065656325812224053
40
0.078469163966480265
40
0.091282094859025859
40
0.10412976221560194
40
0.13005172716153182
40
0.15680155052992303
40
0.15680155052992303
40
0.15680155052992303
40
0.15680155052992303
10
185.94929999999999
20
-871.24899000000005
30
0
10
185.95001596009268
20
-871.24899044173526
30
0
10
185.95144755939515
20
-871.24899132500786
30
0
10
185.95430941781751
20
-871.24900078111011
30
0
10
185.95931180342541
20
-871.24903254664321
30
0
10
185.96644950159856
20
-871.24912384389461
30
0
10
185.9750018343525
20
-871.24930592179567
30
0
10
185.98637204729988
20
-871.24964490284356
30
0
10
186.00054212197406
20
-871.25024828521919
30
0
10
186.01748870838401
20
-871.2512588106606
30
0
10
186.03436074230942
20
-871.25255279790849
30
0
10
186.05672039228585
20
-871.25464971648637
30
0
10
186.08447857683998
20
-871.25796532072616
30
0
10
186.11750046748725
20
-871.26304623253816
30
0
10
186.16095323648452
20
-871.27123763093152
30
0
10
186.2143797571872
20
-871.28411493383692
30
0
10
186.2769745699903
20
-871.3036874389436
30
0
10
186.35780531706695
20
-871.33493849660431
30
0
10
186.45419253742182
20
-871.3834955744677
30
0
10
186.56097681917379
20
-871.45579535194645
30
0
10
186.65744351952185
20
-871.5407856885281
30
0
10
186.74254075872639
20
-871.63728907341249
30
0
10
186.83872917908261
20
-871.77995414544853
30
0
10
186.9288051279095
20
-871.9834497730883
30
0
10
186.94239716591284
20
-872.1595539634277
30
0
10
186.94929999999999
20
-872.24899000000005
30
0
0
SPLINE
5
1040
100
AcDbEntity
8
0
100
AcDbSpline
70
1064
71
3
72
30
73
26
74
0
42
0.000000001
43
0.0000000001
44
0.0000000001
40
0
40
0
40
0
40
0
40
0.00021482694541613347
40
0.00042955742409843693
40
0.00085871592209337249
40
0.0017158362816205122
40
0.002571390480399934
40
0.0034254102753061445
40
0.0051289562517969674
40
0.0068267356627427682
40
0.0085189880011043734
40
0.010205946299477086
40
0.013564760581514465
40
0.016905036184553697
40
0.020228408106873624
40
0.02682956724251289
40
0.033380325821785815
40
0.039890385442206647
40
0.052814027683541709
40
0.065661694843536664
40
0.078474625671894171
40
0.091287463890438403
40
0.10413483201036991
40
0.13005530564086232
40
0.15680159501767216
40
0.15680159501767216
40
0.15680159501767216
40
0.15680159501767216
10
161.54930000000007
20
-872.24898999999994
30
0
10
161.54930044183331
20
-872.24827391004067
30
0
10
161.54930132530112
20
-872.24684205167796
30
0
10
161.54931078349321
20
-872.24397967783091
30
0
10
161.54934255600205
20
-872.23897640196697
30
0
10
161.54943387320878
20
-872.23183744868948
30
0
10
161.54961599089694
20
-872.22328363383883
30
0
10
161.54995504506857
20
-872.2119115076523
30
0
10
161.55055855604886
20
-872.19773911912421
30
0
10
161.55156929621242
20
-872.18078984951035
30
0
10
161.55286355521133
20
-872.16391525441827
30
0
10
161.55496090242849
20
-872.14155242217453
30
0
10
161.55827716885852
20
-872.1137905453993
30
0
10
161.56335908492343
20
-872.08076457177538
30
0
10
161.57155201630488
20
-872.03730717906478
30
0
10
161.58443161587905
20
-871.98387586548529
30
0
10
161.60400749655892
20
-871.92127652830902
30
0
10
161.63526336135675
20
-871.84044222493765
30
0
10
161.68382708880364
20
-871.74405346059075
30
0
10
161.75613526596422
20
-871.63727092398494
30
0
10
161.84113288874372
20
-871.54080928420638
30
0
10
161.93764132295451
20
-871.45571932003361
30
0
10
162.0803071155386
20
-871.35954328023274
30
0
10
162.28378882246631
20
-871.26948268486649
30
0
10
162.45987592456282
20
-871.25589192938173
30
0
10
162.54929999999996
20
-871.24899000000005
30
0
0
SPLINE
5
1041
100
AcDbEntity
8
0
100
AcDbSpline
70
1064
71
3
72
14
73
10
74
0
42
0.000000001
43
0.0000000001
44
0.0000000001
40
0
40
0
40
0
40
0
40
0.22450640302672567
40
0.22450641360971971
40
0.44901280915313846
40
0.44901281973613844
40
0.67351921527955561
40
0.67351922057105262
40
0.89802561985612717
40
0.89802561985612717
40
0.89802561985612717
40
0.89802561985612717
10
295.22989999999999
20
-745.75948999999991
30
0
10
295.64947275044653
20
-746.55323998947279
30
0
10
296.0690455206713
20
-747.34699001636204
30
0
10
297.56575456021437
20
-747.34698998363797
30
0
10
298.40490020771483
20
-746.50784461381647
30
0
10
298.40489979228499
20
-745.01113528035353
30
0
10
297.56575485884673
20
-744.17198997814853
30
0
10
296.06904507576598
20
-744.17199002185157
30
0
10
295.64947253293843
20
-744.96574002028001
30
0
10
295.22989999999999
20
-745.75948999999991
30
0
0
SPLINE
5
1042
100
AcDbEntity
8
0
100
AcDbSpline
70
1064
71
3
72
30
73
26
74
0
42
0.000000001
43
0.0000000001
44
0.0000000001
40
0
40
0
40
0
40
0
40
0.00021482694541255807
40
0.000429557424096706
40
0.00085871592209706127
40
0.0017158362816169143
40
0.0025713904804003417
40
0.003425410275311879
40
0.0051289562517940913
40
0.0068267356627393881
40
0.0085189880010992213
40
0.010205946299478566
40
0.013564760581514259
40
0.01690503618455768
40
0.020228408106875432
40
0.02682956724251476
40
0.033380325821790229
40
0.039890385442205939
40
0.052814027683539419
40
0.065661694843538787
40
0.07847462567188894
40
0.09128746389043968
40
0.10413483201037317
40
0.13005530564087003
40
0.15680159501767257
40
0.15680159501767257
40
0.15680159501767257
40
0.15680159501767257
10
161.54930000000007
20
-849.76999000000001
30
0
10
161.54930044183317
20
-849.76927391004074
30
0
10
161.54930132530083
20
-849.76784205167803
30
0
10
161.54931078349341
20
-849.76497967783087
30
0
10
161.5493425560021
20
-849.75997640196692
30
0
10
161.5494338732087
20
-849.75283744868943
30
0
10
161.54961599089731
20
-849.7442836338389
30
0
10
161.54995504506866
20
-849.73291150765237
30
0
10
161.55055855604857
20
-849.71873911912428
30
0
10
161.55156929621256
20
-849.70178984951053
30
0
10
161.55286355521142
20
-849.68491525441823
30
0
10
161.55496090242877
20
-849.66255242217471
30
0
10
161.55827716885881
20
-849.63479054539926
30
0
10
161.56335908492338
20
-849.60176457177545
30
0
10
161.57155201630502
20
-849.55830717906474
30
0
10
161.58443161587888
20
-849.50487586548536
30
0
10
161.60400749655906
20
-849.44227652830921
30
0
10
161.63526336135681
20
-849.36144222493749
30
0
10
161.68382708880372
20
-849.26505346059093
30
0
10
161.75613526596408
20
-849.1582709239849
30
0
10
161.84113288874357
20
-849.06180928420645
30
0
10
161.9376413229547
20
-848.97671932003368
30
0
10
162.08030711553846
20
-848.8805432802327
30
0
10
162.28378882246645
20
-848.79048268486645
30
0
10
162.45987592456288
20
-848.7768919293818
30
0
10
162.54929999999996
20
-848.76999000000012
30
0
0
LINE
5
1043
100
AcDbEntity
8
0
100
AcDbLine
10
110.61739999999993
20
-850.76999000000001
30
0
11
110.61739999999993
21
-849.76999000000001
31
0
0
LINE
5
1044
100
AcDbEntity
8
0
100
AcDbLine
10
649.42804850806215
20
-378.3078246675509
30
0
11
649.42804850806215
21
-364.20782466755088
31
0
0
LWPOLYLINE
5
1045
100
AcDbEntity
8
0
100
AcDbPolyline
90
4
70
1
43
0.0
10
693.02809250844302
20
-409.05786878015635
10
693.02809250844302
20
-439.05786878015618
10
696.02809250844302
20
-439.05786878015618
10
696.02809250844302
20
-409.05786878015635
0
LINE
5
1046
100
AcDbEntity
8
0
100
AcDbLine
10
840.22782686819119
20
-367.65004751528079
30
0
11
840.22782686819141
21
-353.75013578383459
31
0
0
LINE
5
1047
100
AcDbEntity
8
0
100
AcDbLine
10
652.62804850806219
20
-364.20782466755088
30
0
11
652.62804850806242
21
-350.30791293610463
31
0
0
ELLIPSE
5
1048
100
AcDbEntity
8
0
100
AcDbEllipse
10
129.03719999999993
20
-779.18588999999997
30
0
11
0
21
6.2230000000000008
31
0.0
40
1
41
0
42
6.2831853071795862
0
LINE
5
1049
100
AcDbEntity
8
0
100
AcDbLine
10
287.07789999999994
20
-708.65949000000001
30
0
11
287.07789999999994
21
-732.0594900000001
31
0
0
LINE
5
1050
100
AcDbEntity
8
0
100
AcDbLine
10
801.62515352243315
20
-364.20719776617534
30
0
11
801.62516531638573
21
-378.30719776617514
31
0
0
SPLINE
5
1051
100
AcDbEntity
8
0
100
AcDbSpline
70
1064
71
3
72
14
73
10
74
0
42
0.000000001
43
0.0000000001
44
0.0000000001
40
0
40
0
40
0
40
0
40
0.67351920908018437
40
0.67351923538318148
40
1.3470384258643398
40
1.3470384521673386
40
2.0205576426484968
40
2.0205576557999962
40
2.6940768555806676
40
2.6940768555806676
40
2.6940768555806676
40
2.6940768555806676
10
758.95426757431301
20
-678.1748372724644
30
0
10
756.57301765494799
20
-676.91611919181264
30
0
10
754.19176764258782
20
-675.6574010620044
30
0
10
754.19176750603822
20
-671.16727328189131
30
0
10
756.70920370193903
20
-668.64983735511134
30
0
10
761.19933170971706
20
-668.6498371898175
30
0
10
763.71676759106344
20
-671.16727297784223
30
0
10
763.71676755756243
20
-675.6574017296
30
0
10
761.33551754268888
20
-676.91611951332129
30
0
10
758.95426757431301
20
-678.1748372724644
30
0
0
LINE
5
1052
100
AcDbEntity
8
0
100
AcDbLine
10
860.47780971971952
20
-448.05004747193766
30
0
11
860.47780971971952
21
-451.25004747193748
31
0
0
LINE
5
1053
100
AcDbEntity
8
0
100
AcDbLine
10
880.52792521984907
20
-353.75013578383459
30
0
11
893.72780912968142
21
-353.75013578383459
31
0
0
LINE
5
1054
100
AcDbEntity
8
0
100
AcDbLine
10
649.42804850806215
20
-364.20782466755088
30
0
11
652.62804850806219
21
-364.20782466755088
31
0
0
LINE
5
1055
100
AcDbEntity
8
0
100
AcDbLine
10
798.4278504258416
20
-661.70786925665072
30
0
11
801.62786757431286
21
-661.7078882737635
31
0
0
LINE
5
1056
100
AcDbEntity
8
0
100
AcDbLine
10
652.62804850806219
20
-378.3078246675509
30
0
11
649.42804850806215
21
-378.3078246675509
31
0
0
LINE
5
1057
100
AcDbEntity
8
0
100
AcDbLine
10
798.42785042584046
20
-392.00782466755078
30
0
11
798.42516537784434
21
-378.30782493067068
31
0
0
LINE
5
1058
100
AcDbEntity
8
0
100
AcDbLine
10
798.42537544053448
20
-364.20792540736107
30
0
11
801.62515352243315
21
-364.20719776617534
31
0
0
SPLINE
5
1059
100
AcDbEntity
8
0
100
AcDbSpline
70
1064
71
3
72
30
73
26
74
0
42
0.000000001
43
0.0000000001
44
0.0000000001
40
0
40
0
40
0
40
0
40
0.00021482694540900818
40
0.00042955742408429986
40
0.00085871592209341195
40
0.0017158362816079705
40
0.0025713904803893193
40
0.0034254102753015184
40
0.0051289562517963802
40
0.0068267356627483471
40
0.0085189880010869273
40
0.010205946299466105
40
0.01356476058151475
40
0.016905036184548715
40
0.020228408106856423
40
0.026829567242506319
40
0.033380325821783484
40
0.039890385442191229
40
0.052814027683519102
40
0.06566169484353529
40
0.078474625671877019
40
0.091287463890429563
40
0.10413483201038395
40
0.13005530564085521
40
0.15680159501767055
40
0.15680159501767055
40
0.15680159501767055
40
0.15680159501767055
10
286.0779
20
-707.65949000000001
30
0
10
286.07861608995927
20
-707.65949044183321
30
0
10
286.08004794832203
20
-707.65949132530079
30
0
10
286.08291032216903
20
-707.65950078349351
30
0
10
286.08791359803297
20
-707.65953255600175
30
0
10
286.09505255131057
20
-707.65962387320872
30
0
10
286.1036063661611
20
-707.65980599089698
30
0
10
286.11497849234752
20
-707.66014504506882
30
0
10
286.1291508808759
20
-707.66074855604859
30
0
10
286.14610015048959
20
-707.66175929621249
30
0
10
286.16297474558172
20
-707.66305355521138
30
0
10
286.18533757782535
20
-707.66515090242876
30
0
10
286.21309945460069
20
-707.66846716885834
30
0
10
286.24612542822456
20
-707.67354908492371
30
0
10
286.28958282093504
20
-707.68174201630484
30
0
10
286.34301413451453
20
-707.69462161587899
30
0
10
286.40561347169074
20
-707.71419749655911
30
0
10
286.48644777506235
20
-707.74545336135679
30
0
10
286.58283653940913
20
-707.79401708880346
30
0
10
286.68961907601499
20
-707.86632526596418
30
0
10
286.78608071579356
20
-707.95132288874356
30
0
10
286.87117067996638
20
-708.04783132295483
30
0
10
286.96734671976708
20
-708.19049711553862
30
0
10
287.05740731513356
20
-708.39397882246647
30
0
10
287.07099807061832
20
-708.57006592456287
30
0
10
287.07789999999994
20
-708.65949000000001
30
0
0
SPLINE
5
1060
100
AcDbEntity
8
0
100
AcDbSpline
70
1064
71
3
72
14
73
10
74
0
42
0.000000001
43
0.0000000001
44
0.0000000001
40
0
40
0
40
0
40
0
40
0.28284271247462867
40
0.2828427258076327
40
0.56568542885439022
40
0.5656854421873907
40
0.8485281452341491
40
0.84852815190115383
40
1.1313708596615009
40
1.1313708596615009
40
1.1313708596615009
40
1.1313708596615009
10
515.86730000000011
20
-783.25949000000014
30
0
10
515.33870442717091
20
-784.25949000033938
30
0
10
514.81010882942394
20
-785.25949004781808
30
0
10
512.92449106867218
20
-785.25948995218198
30
0
10
511.86729953739189
20
-784.20229898915886
30
0
10
511.86730046260823
20
-782.31668087751109
30
0
10
512.92449072773309
20
-781.25949008356611
30
0
10
514.81010935464883
20
-781.25948991643395
30
0
10
515.3387046835544
20
-782.25948997000273
30
0
10
515.86730000000011
20
-783.25949000000014
30
0
0
LINE
5
1061
100
AcDbEntity
8
0
100
AcDbLine
10
798.42516537784434
20
-378.30782493067068
30
0
11
801.62516531638573
21
-378.30719776617514
31
0
0
LINE
5
1062
100
AcDbEntity
8
0
100
AcDbLine
10
308.55689999999993
20
-733.05948999999998
30
0
11
307.55689999999993
21
-733.05948999999998
31
0
0
SPLINE
5
1063
100
AcDbEntity
8
0
100
AcDbSpline
70
1064
71
3
72
30
73
26
74
0
42
0.000000001
43
0.0000000001
44
0.0000000001
40
0
40
0
40
0
40
0
40
0.00021479045878878048
40
0.00042948217859568665
40
0.00085856377052037744
40
0.0017155327693251525
40
0.0025709388871151513
40
0.0034248138909826805
40
0.0051280801808378683
40
0.006825593154086298
40
0.0085175923366160988
40
0.010204310772613601
40
0.013562685102891948
40
0.016902573553625358
40
0.020225610477631866
40
0.026826251802470322
40
0.033376686116719553
40
0.039886599736435289
40
0.052810407330676205
40
0.065658689914652124
40
0.078472468882199248
40
0.091286155194233151
40
0.10413413860526366
40
0.13005431262688241
40
0.15679725330742361
40
0.15679725330742361
40
0.15679725330742361
40
0.15679725330742361
10
306.55689999999998
20
-708.65949000000001
30
0
10
306.55690044195018
20
-708.65877403166269
30
0
10
306.55690132564729
20
-708.65734242411804
30
0
10
306.55691078608021
20
-708.65448055745117
30
0
10
306.55694256586219
20
-708.64947817172936
30
0
10
306.55703390365477
20
-708.64234047325351
30
0
10
306.55721606168902
20
-708.63378814031216
30
0
10
306.55755519089041
20
-708.62241792567374
30
0
10
306.55815883470746
20
-708.60824784752833
30
0
10
306.5591697921264
20
-708.59130125946706
30
0
10
306.56046432535697
20
-708.57442922395978
30
0
10
306.56256211857277
20
-708.55206955667541
30
0
10
306.5658790824408
20
-708.52431134263588
30
0
10
306.57096201672641
20
-708.49128944291408
30
0
10
306.57915660070432
20
-708.44783656547133
30
0
10
306.59203872565638
20
-708.39440988715285
30
0
10
306.6116180315214
20
-708.33181507110692
30
0
10
306.64287931666695
20
-708.25098395069449
30
0
10
306.6914504836044
20
-708.15459663264869
30
0
10
306.7637665772445
20
-708.04781305251799
30
0
10
306.8487707774442
20
-707.95134716121902
30
0
10
306.94528348484062
20
-707.86625054875162
30
0
10
307.08794787244619
20
-707.77006618011922
30
0
10
307.29141234568897
20
-707.67999084194298
30
0
10
307.46748716421007
20
-707.66639442054259
30
0
10
307.55689999999993
20
-707.65949000000001
30
0
0
LINE
5
1064
100
AcDbEntity
8
0
100
AcDbLine
10
798.4278504258416
20
-647.80783731580755
30
0
11
798.4278504258416
21
-661.70786925665072
31
0
0
LINE
5
1065
100
AcDbEntity
8
0
100
AcDbLine
10
798.4278504258416
20
-703.60783727246439
30
0
11
798.4278504258416
21
-717.50783727246426
31
0
0
LINE
5
1066
100
AcDbEntity
8
0
100
AcDbLine
10
778.17786757431304
20
-714.30779388431222
30
0
11
758.12789934602324
21
-714.30779388431222
31
0
0
LINE
5
1067
100
AcDbEntity
8
0
100
AcDbLine
10
798.4278504258416
20
-675.80791018229047
30
0
11
798.4278504258416
21
-689.50783727246426
31
0
0
LINE
5
1068
100
AcDbEntity
8
0
100
AcDbLine
10
778.17786757431304
20
-717.50783727246426
30
0
11
778.17786757431304
21
-714.30779388431222
31
0
0
LINE
5
1069
100
AcDbEntity
8
0
100
AcDbLine
10
649.42786757431338
20
-689.50784735429113
30
0
11
652.6280485080631
21
-689.50773631456468
31
0
0
LINE
5
1070
100
AcDbEntity
8
0
100
AcDbLine
10
718.92820680011823
20
-717.50783727246426
30
0
11
718.92797172400014
21
-714.30779388431233
31
0
0
LINE
5
1071
100
AcDbEntity
8
0
100
AcDbLine
10
672.8778675743132
20
-717.50779388431226
30
0
11
652.62804850806288
21
-717.50782458086428
31
0
0
SPLINE
5
1072
100
AcDbEntity
8
0
100
AcDbSpline
70
1064
71
3
72
14
73
10
74
0
42
0.000000001
43
0.0000000001
44
0.0000000001
40
0
40
0
40
0
40
0
40
0.67351920908018315
40
0.67351923538318026
40
1.3470384258643362
40
1.3470384521673351
40
2.0205576426484946
40
2.020557655799994
40
2.6940768555806627
40
2.6940768555806627
40
2.6940768555806627
40
2.6940768555806627
10
692.10146757431312
20
-678.1748372724644
30
0
10
689.720217576447
20
-676.91611922051788
30
0
10
687.33896748558561
20
-675.65740111941454
30
0
10
687.33896766304065
20
-671.16727322448105
30
0
10
689.85640380020504
20
-668.64983733807799
30
0
10
694.34653161145116
20
-668.64983720685075
30
0
10
696.86396792278344
20
-671.16727322709221
30
0
10
696.86396722584277
20
-675.6574014803499
30
0
10
694.48271737682921
20
-676.91611938869642
30
0
10
692.10146757431312
20
-678.1748372724644
30
0
0
LINE
5
1073
100
AcDbEntity
8
0
100
AcDbLine
10
840.22782686819119
20
-381.75004751528081
30
0
11
837.02782686819114
21
-381.75004751528081
31
0
0
SPLINE
5
1074
100
AcDbEntity
8
0
100
AcDbSpline
70
1064
71
3
72
14
73
10
74
0
42
0.000000001
43
0.0000000001
44
0.0000000001
40
0
40
0
40
0
40
0
40
0.22450640302672312
40
0.22450641360972781
40
0.44901280915313413
40
0.44901281973612817
40
0.67351921527954206
40
0.67351922057104263
40
0.89802561985611229
40
0.89802561985611229
40
0.89802561985611229
40
0.89802561985611229
10
148.71739999999994
20
-891.50619000000006
30
0
10
149.51115017656804
20
-891.92576260578699
30
0
10
150.30490039055252
20
-892.34533523135224
30
0
10
150.3048996094472
20
-893.84204484953341
30
0
10
149.46575487555953
20
-894.68118998691398
30
0
10
147.96904501861042
20
-894.68119001308605
30
0
10
147.12989949137489
20
-893.84204482931568
30
0
10
147.12990050862516
20
-892.34533510529729
30
0
10
147.92365026366667
20
-891.92576254770415
30
0
10
148.71740000000003
20
-891.50619000000006
30
0
0
LINE
5
1075
100
AcDbEntity
8
0
100
AcDbLine
10
744.92786816435125
20
-717.50783727246426
30
0
11
744.92786771430076
21
-714.30779388431222
31
0
0
SPLINE
5
1076
100
AcDbEntity
8
0
100
AcDbSpline
70
1064
71
3
72
30
73
26
74
0
42
0.000000001
43
0.0000000001
44
0.0000000001
40
0
40
0
40
0
40
0
40
0.00021478798543174703
40
0.00042947970603178357
40
0.00085856129370779407
40
0.0017155302378881188
40
0.0025709361928021755
40
0.003424810873406842
40
0.0051280758466488302
40
0.0068255862696605159
40
0.0085175813006207746
40
0.010204293638353691
40
0.013562648750355351
40
0.016902506611459665
40
0.020225499632609761
40
0.026826007758880659
40
0.033376241351658897
40
0.039885884232460506
40
0.052808957888940529
40
0.065656325812222777
40
0.07846916396647724
40
0.091282094859029161
40
0.10412976221559159
40
0.13005172716152744
40
0.15680155052991071
40
0.15680155052991071
40
0.15680155052991071
40
0.15680155052991071
10
309.55689999999998
20
-732.0594900000001
30
0
10
309.55689955826466
20
-732.06020596009262
30
0
10
309.556898674992
20
-732.06163755939519
30
0
10
309.55688921889032
20
-732.06449941781761
30
0
10
309.55685745335632
20
-732.06950180342551
30
0
10
309.55676615610577
20
-732.07663950159849
30
0
10
309.55658407820431
20
-732.0851918343526
30
0
10
309.55624509715665
20
-732.09656204730004
30
0
10
309.5556417147809
20
-732.11073212197402
30
0
10
309.55463118933943
20
-732.12767870838411
30
0
10
309.55333720209177
20
-732.14455074230966
30
0
10
309.55124028351344
20
-732.16691039228579
30
0
10
309.5479246792741
20
-732.19466857684006
30
0
10
309.54284376746187
20
-732.22769046748726
30
0
10
309.53465236906834
20
-732.27114323648448
30
0
10
309.521775066163
20
-732.32456975718719
30
0
10
309.50220256105638
20
-732.38716456999009
30
0
10
309.47095150339578
20
-732.46799531706711
30
0
10
309.42239442553227
20
-732.56438253742192
30
0
10
309.3500946480533
20
-732.67116681917378
30
0
10
309.2651043114721
20
-732.76763351952195
30
0
10
309.16860092658732
20
-732.85273075872612
30
0
10
309.02593585455128
20
-732.9489191790824
30
0
10
308.82244022691168
20
-733.03899512790952
30
0
10
308.64633603657234
20
-733.05258716591288
30
0
10
308.55690000000004
20
-733.05948999999998
30
0
0
LINE
5
1077
100
AcDbEntity
8
0
100
AcDbLine
10
798.4278504258416
20
-717.50783727246426
30
0
11
778.17786757431304
21
-717.50783727246426
31
0
0
LINE
5
1078
100
AcDbEntity
8
0
100
AcDbLine
10
758.12789934602324
20
-714.30779388431222
30
0
11
758.12775207418372
21
-717.50783727246426
31
0
0
LINE
5
1079
100
AcDbEntity
8
0
100
AcDbLine
10
778.17786757431304
20
-714.30779388431222
30
0
11
758.12789934602324
21
-714.30779388431222
31
0
0
LINE
5
1080
100
AcDbEntity
8
0
100
AcDbLine
10
801.62785042584164
20
-703.60783727246439
30
0
11
798.4278504258416
21
-703.60783727246439
31
0
0
LINE
5
1081
100
AcDbEntity
8
0
100
AcDbLine
10
837.02782686819114
20
-367.65004751528079
30
0
11
840.22782686819119
21
-367.65004751528079
31
0
0
SPLINE
5
1082
100
AcDbEntity
8
0
100
AcDbSpline
70
1064
71
3
72
14
73
10
74
0
42
0.000000001
43
0.0000000001
44
0.0000000001
40
0
40
0
40
0
40
0
40
0.28284271247460857
40
0.28284272580760905
40
0.56568542885437778
40
0.56568544218737826
40
0.84852814523414666
40
0.84852815190114428
40
1.1313708596614762
40
1.1313708596614762
40
1.1313708596614762
40
1.1313708596614762
10
484.86729999999994
20
-783.25949000000014
30
0
10
484.33870450334524
20
-784.25948998553781
30
0
10
483.81010898177294
20
-785.25949001821471
30
0
10
481.92449091632341
20
-785.25948998178524
30
0
10
480.86729972348002
20
-784.20229895775628
30
0
10
480.86730027652004
20
-782.31668090891378
30
0
10
481.92449117550586
20
-781.25949013135073
30
0
10
483.81010890687617
20
-781.25948986864944
30
0
10
484.33870445966795
20
-782.25948994611042
30
0
10
484.86729999999994
20
-783.25949000000014
30
0
0
LINE
5
1083
100
AcDbEntity
8
0
100
AcDbLine
10
801.62786757431286
20
-661.7078882737635
30
0
11
801.62786757431286
21
-675.80781459204763
31
0
0
LINE
5
1084
100
AcDbEntity
8
0
100
AcDbLine
10
758.12789934602324
20
-714.30779388431222
30
0
11
758.12775207418372
21
-717.50783727246426
31
0
0
SPLINE
5
1085
100
AcDbEntity
8
0
100
AcDbSpline
70
1064
71
3
72
30
73
26
74
0
42
0.000000001
43
0.0000000001
44
0.0000000001
40
0
40
0
40
0
40
0
40
0.00021479045878522779
40
0.0004294821785965294
40
0.00085856377052037744
40
0.0017155327693269286
40
0.0025709388871181186
40
0.003424813890980997
40
0.0051280801808406213
40
0.0068255931540841946
40
0.008517592336617941
40
0.010204310772614781
40
0.013562685102892325
40
0.016902573553620261
40
0.020225610477633323
40
0.026826251802474187
40
0.033376686116716632
40
0.039886599736434852
40
0.052810407330682138
40
0.065658689914649362
40
0.078472468882183732
40
0.091286155194227114
40
0.10413413860527328
40
0.13005431262688583
40
0.15679725330742714
40
0.15679725330742714
40
0.15679725330742714
40
0.15679725330742714
10
284.0779
20
-708.65949000000001
30
0
10
284.07790044195008
20
-708.65877403166269
30
0
10
284.0779013256473
20
-708.65734242411804
30
0
10
284.07791078607994
20
-708.65448055745117
30
0
10
284.07794256586226
20
-708.64947817172936
30
0
10
284.07803390365461
20
-708.64234047325351
30
0
10
284.07821606168903
20
-708.63378814031216
30
0
10
284.07855519089031
20
-708.62241792567374
30
0
10
284.07915883470753
20
-708.60824784752833
30
0
10
284.08016979212618
20
-708.59130125946706
30
0
10
284.08146432535739
20
-708.57442922395978
30
0
10
284.08356211857267
20
-708.55206955667541
30
0
10
284.08687908244076
20
-708.52431134263588
30
0
10
284.09196201672637
20
-708.49128944291408
30
0
10
284.10015660070428
20
-708.44783656547133
30
0
10
284.11303872565668
20
-708.39440988715285
30
0
10
284.13261803152147
20
-708.33181507110692
30
0
10
284.16387931666696
20
-708.25098395069449
30
0
10
284.21245048360453
20
-708.15459663264869
30
0
10
284.28476657724451
20
-708.04781305251799
30
0
10
284.36977077744388
20
-707.95134716121891
30
0
10
284.46628348484057
20
-707.86625054875162
30
0
10
284.60894787244638
20
-707.77006618011933
30
0
10
284.81241234568898
20
-707.67999084194298
30
0
10
284.98848716421008
20
-707.66639442054259
30
0
10
285.0779
20
-707.65949000000001
30
0
0
ELLIPSE
5
1086
100
AcDbEntity
8
0
100
AcDbEllipse
10
129.03719999999993
20
-712.33309000000008
30
0
11
0
21
6.2230000000000008
31
0.0
40
1
41
0
42
6.2831853071795862
0
LINE
5
1087
100
AcDbEntity
8
0
100
AcDbLine
10
801.62786757431286
20
-675.80781459204763
30
0
11
798.4278504258416
21
-675.80791018229047
31
0
0
LINE
5
1088
100
AcDbEntity
8
0
100
AcDbLine
10
798.4278504258416
20
-647.80783731580755
30
0
11
798.4278504258416
21
-661.70786925665072
31
0
0
LINE
5
1089
100
AcDbEntity
8
0
100
AcDbLine
10
758.12775207418372
20
-717.50783727246426
30
0
11
744.92786816435125
21
-717.50783727246426
31
0
0
LINE
5
1090
100
AcDbEntity
8
0
100
AcDbLine
10
758.12775207418372
20
-717.50783727246426
30
0
11
744.92786816435125
21
-717.50783727246426
31
0
0
LINE
5
1091
100
AcDbEntity
8
0
100
AcDbLine
10
732.12740605080285
20
-717.50783727246426
30
0
11
718.92820680011823
21
-717.50783727246426
31
0
0
LINE
5
1092
100
AcDbEntity
8
0
100
AcDbLine
10
706.12786171476444
20
-714.30779388431222
30
0
11
706.1278528370965
21
-717.50783727246426
31
0
0
LINE
5
1093
100
AcDbEntity
8
0
100
AcDbLine
10
706.12786171476444
20
-714.30779388431222
30
0
11
706.1278528370965
21
-717.50783727246426
31
0
0
LINE
5
1094
100
AcDbEntity
8
0
100
AcDbLine
10
718.92797172400014
20
-714.30779388431233
30
0
11
706.12786171476444
21
-714.30779388431222
31
0
0
LINE
5
1095
100
AcDbEntity
8
0
100
AcDbLine
10
778.17786757431304
20
-717.50783727246426
30
0
11
778.17786757431304
21
-714.30779388431222
31
0
0
LINE
5
1096
100
AcDbEntity
8
0
100
AcDbLine
10
692.92781734370021
20
-714.30779388431222
30
0
11
672.8778675743132
21
-714.30779388431222
31
0
0
LINE
5
1097
100
AcDbEntity
8
0
100
AcDbLine
10
652.6280485080631
20
-703.60783727246439
30
0
11
649.42804850806306
21
-703.60783727246439
31
0
0
SPLINE
5
1098
100
AcDbEntity
8
0
100
AcDbSpline
70
1064
71
3
72
14
73
10
74
0
42
0.000000001
43
0.0000000001
44
0.0000000001
40
0
40
0
40
0
40
0
40
0.67351920908018315
40
0.67351923538318026
40
1.3470384258643362
40
1.3470384521673351
40
2.0205576426484946
40
2.020557655799994
40
2.6940768555806627
40
2.6940768555806627
40
2.6940768555806627
40
2.6940768555806627
10
692.10146757431312
20
-678.1748372724644
30
0
10
689.720217576447
20
-676.91611922051788
30
0
10
687.33896748558561
20
-675.65740111941454
30
0
10
687.33896766304065
20
-671.16727322448105
30
0
10
689.85640380020504
20
-668.64983733807799
30
0
10
694.34653161145116
20
-668.64983720685075
30
0
10
696.86396792278344
20
-671.16727322709221
30
0
10
696.86396722584277
20
-675.6574014803499
30
0
10
694.48271737682921
20
-676.91611938869642
30
0
10
692.10146757431312
20
-678.1748372724644
30
0
0
LINE
5
1099
100
AcDbEntity
8
0
100
AcDbLine
10
649.42804850806306
20
-703.60783727246439
30
0
11
649.42786757431338
21
-689.50784735429113
31
0
0
LINE
5
1100
100
AcDbEntity
8
0
100
AcDbLine
10
307.55689999999993
20
-707.65949000000001
30
0
11
308.55689999999993
21
-707.65949000000001
31
0
0
LINE
5
1101
100
AcDbEntity
8
0
100
AcDbLine
10
285.0779
20
-707.65949000000001
30
0
11
286.0779
21
-707.65949000000001
31
0
0
LINE
5
1102
100
AcDbEntity
8
0
100
AcDbLine
10
649.42786757431338
20
-689.50784735429113
30
0
11
652.6280485080631
21
-689.50773631456468
31
0
0
SPLINE
5
1103
100
AcDbEntity
8
0
100
AcDbSpline
70
1064
71
3
72
14
73
10
74
0
42
0.000000001
43
0.0000000001
44
0.0000000001
40
0
40
0
40
0
40
0
40
0.22450640302672312
40
0.22450641360972781
40
0.44901280915313413
40
0.44901281973612817
40
0.67351921527955705
40
0.67351922057105762
40
0.89802561985613738
40
0.89802561985613738
40
0.89802561985613738
40
0.89802561985613738
10
184.9124000000001
20
-891.50619000000006
30
0
10
185.70615021251527
20
-891.92576260578699
30
0
10
186.49990046244687
20
-892.34533523135224
30
0
10
186.49989953755318
20
-893.84204484953341
30
0
10
185.66075413704851
20
-894.6811900109667
30
0
10
184.1640457571217
20
-894.68118998903333
30
0
10
183.32489866677315
20
-893.84204482931568
30
0
10
183.32490133322693
20
-892.34533510529729
30
0
10
184.11865067596773
20
-891.92576254770404
30
0
10
184.91240000000019
20
-891.50619000000006
30
0
0
LINE
5
1104
100
AcDbEntity
8
0
100
AcDbLine
10
652.6280485080631
20
-689.50773631456468
30
0
11
652.6280485080631
21
-675.80783727246444
31
0
0
LINE
5
1105
100
AcDbEntity
8
0
100
AcDbLine
10
744.92786816435125
20
-717.50783727246426
30
0
11
744.92786771430076
21
-714.30779388431222
31
0
0
LINE
5
1106
100
AcDbEntity
8
0
100
AcDbLine
10
672.8778675743132
20
-714.30779388431222
30
0
11
672.8778675743132
21
-717.50779388431226
31
0
0
LINE
5
1107
100
AcDbEntity
8
0
100
AcDbLine
10
391.41740004334281
20
-840.65949000000001
30
0
11
391.41740004334281
21
-843.85949000000005
31
0
0
LINE
5
1108
100
AcDbEntity
8
0
100
AcDbLine
10
391.41740004334281
20
-843.85949000000005
30
0
11
405.51740004334306
21
-843.85945463705093
31
0
0
LINE
5
1109
100
AcDbEntity
8
0
100
AcDbLine
10
652.6280485080631
20
-703.60783727246439
30
0
11
649.42804850806306
21
-703.60783727246439
31
0
0
LINE
5
1110
100
AcDbEntity
8
0
100
AcDbLine
10
405.51740004334306
20
-840.65949000000001
30
0
11
419.21732713351702
21
-840.65949000000001
31
0
0
LINE
5
1111
100
AcDbEntity
8
0
100
AcDbLine
10
419.21732713351702
20
-840.65949000000001
30
0
11
419.21742272375991
21
-843.85950714847138
31
0
0
LINE
5
1112
100
AcDbEntity
8
0
100
AcDbLine
10
405.51740004334306
20
-843.85945463705093
30
0
11
405.51740004334306
21
-840.65949000000001
31
0
0
LINE
5
1113
100
AcDbEntity
8
0
100
AcDbLine
10
801.62781506289252
20
-689.50783727246426
30
0
11
801.62785042584164
21
-703.60783727246439
31
0
0
LINE
5
1114
100
AcDbEntity
8
0
100
AcDbLine
10
732.12740605080285
20
-717.50783727246426
30
0
11
718.92820680011823
21
-717.50783727246426
31
0
0
LINE
5
1115
100
AcDbEntity
8
0
100
AcDbLine
10
433.31734904204382
20
-843.85950714847138
30
0
11
433.31736805915671
21
-840.65949000000001
31
0
0
LINE
5
1116
100
AcDbEntity
8
0
100
AcDbLine
10
798.4278504258416
20
-689.50783727246426
30
0
11
801.62781506289252
21
-689.50783727246426
31
0
0
LINE
5
1117
100
AcDbEntity
8
0
100
AcDbLine
10
652.62804850806288
20
-717.50782458086428
30
0
11
652.6280485080631
21
-703.60783727246439
31
0
0
LINE
5
1118
100
AcDbEntity
8
0
100
AcDbLine
10
672.8778675743132
20
-717.50779388431226
30
0
11
652.62804850806288
21
-717.50782458086428
31
0
0
LINE
5
1119
100
AcDbEntity
8
0
100
AcDbLine
10
744.92786771430076
20
-714.30779388431222
30
0
11
732.12782293982355
21
-714.30779388431222
31
0
0
LINE
5
1120
100
AcDbEntity
8
0
100
AcDbLine
10
649.42790616041884
20
-675.80783727246444
30
0
11
649.42789436646649
21
-661.70783727246442
31
0
0
LINE
5
1121
100
AcDbEntity
8
0
100
AcDbLine
10
652.6280485080631
20
-675.80783727246444
30
0
11
649.42790616041884
21
-675.80783727246444
31
0
0
LINE
5
1122
100
AcDbEntity
8
0
100
AcDbLine
10
798.4278504258416
20
-703.60783727246439
30
0
11
798.4278504258416
21
-717.50783727246426
31
0
0
LINE
5
1123
100
AcDbEntity
8
0
100
AcDbLine
10
718.92820680011823
20
-717.50783727246426
30
0
11
718.92797172400014
21
-714.30779388431233
31
0
0
LINE
5
1124
100
AcDbEntity
8
0
100
AcDbLine
10
652.6280485080631
20
-661.70783727246442
30
0
11
652.6280485080631
21
-647.80783727471862
31
0
0
LINE
5
1125
100
AcDbEntity
8
0
100
AcDbLine
10
798.4278504258416
20
-675.80791018229047
30
0
11
798.4278504258416
21
-689.50783727246426
31
0
0
LINE
5
1126
100
AcDbEntity
8
0
100
AcDbLine
10
692.92781734370021
20
-714.30779388431222
30
0
11
672.8778675743132
21
-714.30779388431222
31
0
0
LINE
5
1127
100
AcDbEntity
8
0
100
AcDbLine
10
652.6280485080631
20
-661.70783727246442
30
0
11
652.6280485080631
21
-647.80783727471862
31
0
0
LINE
5
1128
100
AcDbEntity
8
0
100
AcDbLine
10
649.42789436646649
20
-661.70783727246442
30
0
11
652.6280485080631
21
-661.70783727246442
31
0
0
LINE
5
1129
100
AcDbEntity
8
0
100
AcDbLine
10
652.62804850806288
20
-717.50782458086428
30
0
11
652.6280485080631
21
-703.60783727246439
31
0
0
LINE
5
1130
100
AcDbEntity
8
0
100
AcDbLine
10
801.62781506289252
20
-689.50783727246426
30
0
11
801.62785042584164
21
-703.60783727246439
31
0
0
LINE
5
1131
100
AcDbEntity
8
0
100
AcDbLine
10
744.92786771430076
20
-714.30779388431222
30
0
11
732.12782293982355
21
-714.30779388431222
31
0
0
LINE
5
1132
100
AcDbEntity
8
0
100
AcDbLine
10
652.6280485080631
20
-689.50773631456468
30
0
11
652.6280485080631
21
-675.80783727246444
31
0
0
LINE
5
1133
100
AcDbEntity
8
0
100
AcDbLine
10
649.42789436646649
20
-661.70783727246442
30
0
11
652.6280485080631
21
-661.70783727246442
31
0
0
LINE
5
1134
100
AcDbEntity
8
0
100
AcDbLine
10
692.9279265349121
20
-717.50783727246426
30
0
11
692.92781734370021
21
-714.30779388431222
31
0
0
LINE
5
1135
100
AcDbEntity
8
0
100
AcDbLine
10
692.9279265349121
20
-717.50783727246426
30
0
11
692.92781734370021
21
-714.30779388431222
31
0
0
LINE
5
1136
100
AcDbEntity
8
0
100
AcDbLine
10
718.92797172400014
20
-714.30779388431233
30
0
11
706.12786171476444
21
-714.30779388431222
31
0
0
LINE
5
1137
100
AcDbEntity
8
0
100
AcDbLine
10
652.6280485080631
20
-675.80783727246444
30
0
11
649.42790616041884
21
-675.80783727246444
31
0
0
SPLINE
5
1138
100
AcDbEntity
8
0
100
AcDbSpline
70
1064
71
3
72
14
73
10
74
0
42
0.000000001
43
0.0000000001
44
0.0000000001
40
0
40
0
40
0
40
0
40
0.22450640302672065
40
0.22450641360972889
40
0.44901280915313257
40
0.44901281973613255
40
0.67351921527954461
40
0.67351922057104163
40
0.89802561985611118
40
0.89802561985611118
40
0.89802561985611118
40
0.89802561985611118
10
266.82069999999987
20
-745.75948999999991
30
0
10
266.40112749390482
20
-746.55323999026803
30
0
10
265.98155496803156
20
-747.34699001795275
30
0
10
264.48484495108266
20
-747.34698998204726
30
0
10
263.64570014371571
20
-746.50784461185822
30
0
10
263.64569985628435
20
-745.0111352823119
30
0
10
264.48484444696601
20
-744.1719899715979
30
0
10
265.98155561842111
20
-744.17199002840221
30
0
10
266.40112781415507
20
-744.9657400235551
30
0
10
266.82069999999987
20
-745.75948999999991
30
0
0
LINE
5
1139
100
AcDbEntity
8
0
100
AcDbLine
10
801.62786757431286
20
-675.80781459204763
30
0
11
798.4278504258416
21
-675.80791018229047
31
0
0
LINE
5
1140
100
AcDbEntity
8
0
100
AcDbLine
10
649.42804850806306
20
-703.60783727246439
30
0
11
649.42786757431338
21
-689.50784735429113
31
0
0
LINE
5
1141
100
AcDbEntity
8
0
100
AcDbLine
10
706.1278528370965
20
-717.50783727246426
30
0
11
692.9279265349121
21
-717.50783727246426
31
0
0
LINE
5
1142
100
AcDbEntity
8
0
100
AcDbLine
10
798.4278504258416
20
-689.50783727246426
30
0
11
801.62781506289252
21
-689.50783727246426
31
0
0
SPLINE
5
1143
100
AcDbEntity
8
0
100
AcDbSpline
70
1064
71
3
72
14
73
10
74
0
42
0.000000001
43
0.0000000001
44
0.0000000001
40
0
40
0
40
0
40
0
40
0.67351920908018437
40
0.67351923538318148
40
1.3470384258643398
40
1.3470384521673386
40
2.0205576426484968
40
2.0205576557999962
40
2.6940768555806676
40
2.6940768555806676
40
2.6940768555806676
40
2.6940768555806676
10
758.95426757431301
20
-678.1748372724644
30
0
10
756.57301765494799
20
-676.91611919181264
30
0
10
754.19176764258782
20
-675.6574010620044
30
0
10
754.19176750603822
20
-671.16727328189131
30
0
10
756.70920370193903
20
-668.64983735511134
30
0
10
761.19933170971706
20
-668.6498371898175
30
0
10
763.71676759106344
20
-671.16727297784223
30
0
10
763.71676755756243
20
-675.6574017296
30
0
10
761.33551754268888
20
-676.91611951332129
30
0
10
758.95426757431301
20
-678.1748372724644
30
0
0
LINE
5
1144
100
AcDbEntity
8
0
100
AcDbLine
10
798.4278504258416
20
-717.50783727246426
30
0
11
778.17786757431304
21
-717.50783727246426
31
0
0
LINE
5
1145
100
AcDbEntity
8
0
100
AcDbLine
10
380.71744343149504
20
-774.35946251398195
30
0
11
380.71744343149504
21
-787.15950728845928
31
0
0
LINE
5
1146
100
AcDbEntity
8
0
100
AcDbLine
10
377.51740004334295
20
-735.1595661090704
30
0
11
377.51740004334295
21
-748.35949241125479
31
0
0
LWPOLYLINE
5
1147
100
AcDbEntity
8
0
100
AcDbPolyline
90
4
70
1
43
0.0
10
744.92803194962812
20
-447.80786801235979
10
744.92803149957763
20
-444.60782462420781
10
732.12798672510064
20
-444.60782462420781
10
732.12756983607983
20
-447.80786801235979
0
LWPOLYLINE
5
1148
100
AcDbEntity
8
0
100
AcDbPolyline
90
4
70
1
43
0.0
10
778.17803135958968
20
-447.80786801235979
10
778.17803135958968
20
-444.60782462420781
10
758.12806313130011
20
-444.60782462420781
10
758.12791585946059
20
-447.80786801235979
0
LWPOLYLINE
5
1149
100
AcDbEntity
8
0
100
AcDbPolyline
90
4
70
1
43
0.0
10
692.9280903201892
20
-447.80786801235979
10
692.92798112897742
20
-444.60782462420786
10
672.87803135959052
20
-444.60782462420786
10
672.87803135959041
20
-447.80782462420774
0
LWPOLYLINE
5
1150
100
AcDbEntity
8
0
100
AcDbPolyline
90
4
70
1
43
0.0
10
706.12802550004176
20
-444.60782462420786
10
706.12801662237359
20
-447.80786801235979
10
718.92837058539521
20
-447.80786801235979
10
718.92813550927701
20
-444.60782462420786
0
LINE
5
1151
100
AcDbEntity
8
0
100
AcDbLine
10
380.71744343149487
20
-820.40950714847145
30
0
11
377.51740004334295
21
-820.40950714847145
31
0
0
LINE
5
1152
100
AcDbEntity
8
0
100
AcDbLine
10
672.87803135959041
20
-447.80782462420774
30
0
11
672.87803135959052
21
-447.47259622827937
31
0
0
LINE
5
1153
100
AcDbEntity
8
0
100
AcDbLine
10
692.92816228754259
20
-447.47259622827949
30
0
11
692.92814685971973
21
-447.80782462420774
31
0
0
LINE
5
1154
100
AcDbEntity
8
0
100
AcDbLine
10
405.51750100124264
20
-694.85968808222106
30
0
11
405.5173899615163
21
-691.65950714847145
31
0
0
LINE
5
1155
100
AcDbEntity
8
0
100
AcDbLine
10
649.42804850806215
20
-392.00782466755084
30
0
11
652.62804850806219
21
-392.00782466755084
31
0
0
LINE
5
1156
100
AcDbEntity
8
0
100
AcDbLine
10
377.51744343149511
20
-715.10950714847138
30
0
11
380.71744343149504
21
-715.10950714847138
31
0
0
LINE
5
1157
100
AcDbEntity
8
0
100
AcDbLine
10
649.42803135959048
20
-433.9077736662515
30
0
11
649.4280313595907
21
-419.80784734796771
31
0
0
LINE
5
1158
100
AcDbEntity
8
0
100
AcDbLine
10
377.51740004334295
20
-748.35949241125479
30
0
11
380.71744343149504
21
-748.35950128892262
31
0
0
LINE
5
1159
100
AcDbEntity
8
0
100
AcDbLine
10
380.71744343149504
20
-715.10950714847138
30
0
11
380.71744343149504
21
-735.15945691785862
31
0
0
LINE
5
1160
100
AcDbEntity
8
0
100
AcDbLine
10
380.71744343149487
20
-761.15961129815844
30
0
11
377.51740004334295
21
-761.15984637427641
31
0
0
LINE
5
1161
100
AcDbEntity
8
0
100
AcDbLine
10
652.6282122933402
20
-447.80785532075981
30
0
11
652.62821229333997
21
-647.80785532075936
31
0
0
LINE
5
1162
100
AcDbEntity
8
0
100
AcDbLine
10
419.21742272375991
20
-843.85950714847138
30
0
11
433.31734904204382
21
-843.85950714847138
31
0
0
LINE
5
1163
100
AcDbEntity
8
0
100
AcDbLine
10
419.21740004334282
20
-694.85968808222106
30
0
11
405.51750100124264
21
-694.85968808222106
31
0
0
LINE
5
1164
100
AcDbEntity
8
0
100
AcDbLine
10
377.51740004334295
20
-800.35939164834201
30
0
11
380.71744343149504
21
-800.35953892018165
31
0
0
LINE
5
1165
100
AcDbEntity
8
0
100
AcDbLine
10
377.51740004334295
20
-774.35904562496125
30
0
11
380.71744343149504
21
-774.35946251398195
31
0
0
SPLINE
5
1166
100
AcDbEntity
8
0
100
AcDbSpline
70
1064
71
3
72
14
73
10
74
0
42
0.000000001
43
0.0000000001
44
0.0000000001
40
0
40
0
40
0
40
0
40
0.67351920908019136
40
0.67351923538319025
40
1.3470384258643455
40
1.3470384521673444
40
2.0205576426485021
40
2.0205576558000016
40
2.6940768555806809
40
2.6940768555806809
40
2.6940768555806809
40
2.6940768555806809
10
416.85040004334297
20
-801.18590714847141
30
0
10
418.10911809190202
20
-798.80465720529492
30
0
10
419.36783618961778
20
-796.42340716912315
30
0
10
423.85796409810155
20
-796.4234071278197
30
0
10
426.37540009227291
20
-798.94084321465596
30
0
10
426.37539999441316
20
-803.43097134531706
30
0
10
423.85796394358988
20
-805.94840710510664
30
0
10
419.36783598058287
20
-805.94840719183617
30
0
10
418.10911799967369
20
-803.56715714690506
30
0
10
416.85040004334297
20
-801.18590714847141
30
0
0
LINE
5
1167
100
AcDbEntity
8
0
100
AcDbLine
10
706.12803121960314
20
-353.50795632425678
30
0
11
718.92807599408002
21
-353.50795632425678
31
0
0
LINE
5
1168
100
AcDbEntity
8
0
100
AcDbLine
10
649.42804850806215
20
-392.00782466755084
30
0
11
652.62804850806219
21
-392.00782466755084
31
0
0
LINE
5
1169
100
AcDbEntity
8
0
100
AcDbLine
10
380.71744343149504
20
-800.35953892018165
30
0
11
380.71744343149487
21
-820.40950714847145
31
0
0
LINE
5
1170
100
AcDbEntity
8
0
100
AcDbLine
10
433.31740004334307
20
-691.65953394062456
30
0
11
419.2174000433431
21
-691.65954573457702
31
0
0
LINE
5
1171
100
AcDbEntity
8
0
100
AcDbLine
10
447.21739999999988
20
-840.65949000000001
30
0
11
447.21740004108887
21
-694.85968808222106
31
0
0
LINE
5
1172
100
AcDbEntity
8
0
100
AcDbLine
10
732.12782293982355
20
-714.30779388431222
30
0
11
732.12740605080285
21
-717.50783727246426
31
0
0
LINE
5
1173
100
AcDbEntity
8
0
100
AcDbLine
10
419.2174000433431
20
-691.65954573457702
30
0
11
419.21740004334282
21
-694.85968808222106
31
0
0
LINE
5
1174
100
AcDbEntity
8
0
100
AcDbLine
10
732.12782293982355
20
-714.30779388431222
30
0
11
732.12740605080285
21
-717.50783727246426
31
0
0
LINE
5
1175
100
AcDbEntity
8
0
100
AcDbLine
10
391.41740004334281
20
-691.65968808222124
30
0
11
391.41740004334281
21
-694.85968808222106
31
0
0
LINE
5
1176
100
AcDbEntity
8
0
100
AcDbLine
10
377.51744343149511
20
-715.10950714847138
30
0
11
377.51741273494298
21
-698.05968808222121
31
0
0
LINE
5
1177
100
AcDbEntity
8
0
100
AcDbLine
10
377.51740004334295
20
-761.15984637427641
30
0
11
377.51740004334295
21
-774.35904562496125
31
0
0
LINE
5
1178
100
AcDbEntity
8
0
100
AcDbLine
10
672.87803135959041
20
-447.80782462420774
30
0
11
672.87803135959052
21
-444.60782462420786
31
0
0
LINE
5
1179
100
AcDbEntity
8
0
100
AcDbLine
10
380.71744343149504
20
-735.15945691785862
30
0
11
377.51740004334295
21
-735.1595661090704
31
0
0
LINE
5
1180
100
AcDbEntity
8
0
100
AcDbLine
10
649.42790616041884
20
-675.80783727246444
30
0
11
649.42789436646649
21
-661.70783727246442
31
0
0
LINE
5
1181
100
AcDbEntity
8
0
100
AcDbLine
10
798.42785042583978
20
-447.80783731580783
30
0
11
798.4278504258416
21
-647.80783731580755
31
0
0
LINE
5
1182
100
AcDbEntity
8
0
100
AcDbLine
10
405.5173899615163
20
-691.65950714847145
30
0
11
391.41740004334281
21
-691.65968808222124
31
0
0
LINE
5
1183
100
AcDbEntity
8
0
100
AcDbLine
10
380.71744343149504
20
-748.35950128892262
30
0
11
380.71744343149487
21
-761.15961129815844
31
0
0
LINE
5
1184
100
AcDbEntity
8
0
100
AcDbLine
10
377.51740004334295
20
-820.40950714847145
30
0
11
377.51740004334295
21
-837.45949000000007
31
0
0
LINE
5
1185
100
AcDbEntity
8
0
100
AcDbLine
10
706.1278528370965
20
-717.50783727246426
30
0
11
692.9279265349121
21
-717.50783727246426
31
0
0
LINE
5
1186
100
AcDbEntity
8
0
100
AcDbLine
10
672.8778675743132
20
-714.30779388431222
30
0
11
672.8778675743132
21
-717.50779388431226
31
0
0
LINE
5
1187
100
AcDbEntity
8
0
100
AcDbLine
10
652.62804850806242
20
-350.30791293610463
30
0
11
672.87803135959075
21
-350.30791293610463
31
0
0
LINE
5
1188
100
AcDbEntity
8
0
100
AcDbLine
10
798.42785042584046
20
-419.80782466755079
30
0
11
801.62799277348449
21
-419.80782466755079
31
0
0
LINE
5
1189
100
AcDbEntity
8
0
100
AcDbLine
10
718.92807599408002
20
-353.50795632425678
30
0
11
718.92849288310094
21
-350.30791293610463
31
0
0
LINE
5
1190
100
AcDbEntity
8
0
100
AcDbLine
10
649.42808387101104
20
-406.10782466755091
30
0
11
649.42804850806215
21
-392.00782466755084
31
0
0
LINE
5
1191
100
AcDbEntity
8
0
100
AcDbLine
10
758.12797239899157
20
-350.30791293610463
30
0
11
758.12808159020346
21
-353.50795632425672
31
0
0
LINE
5
1192
100
AcDbEntity
8
0
100
AcDbLine
10
380.71741273494297
20
-694.85968808222106
30
0
11
391.41740004334281
21
-694.85968808222106
31
0
0
LINE
5
1193
100
AcDbEntity
8
0
100
AcDbLine
10
391.41740004334281
20
-840.65949000000001
30
0
11
380.71740004334299
21
-840.65949000000001
31
0
0
LINE
5
1194
100
AcDbEntity
8
0
100
AcDbLine
10
801.62785042584051
20
-392.00782466755078
30
0
11
798.42785042584046
21
-392.00782466755078
31
0
0
LINE
5
1195
100
AcDbEntity
8
0
100
AcDbLine
10
380.71744343149504
20
-787.15950728845928
30
0
11
377.51740004334295
21
-787.15950773850977
31
0
0
LINE
5
1196
100
AcDbEntity
8
0
100
AcDbLine
10
758.12808159020346
20
-353.50795632425672
30
0
11
778.17803135959025
21
-353.50795632425672
31
0
0
LINE
5
1197
100
AcDbEntity
8
0
100
AcDbLine
10
798.42785042584046
20
-392.00782466755078
30
0
11
801.62785042584051
21
-392.00782466755078
31
0
0
LINE
5
1198
100
AcDbEntity
8
0
100
AcDbLine
10
433.31740004334307
20
-691.65953394062456
30
0
11
433.31740004334307
21
-694.85968808222106
31
0
0
SPLINE
5
1199
100
AcDbEntity
8
0
100
AcDbSpline
70
1064
71
3
72
14
73
10
74
0
42
0.000000001
43
0.0000000001
44
0.0000000001
40
0
40
0
40
0
40
0
40
0.67351920908019269
40
0.67351923538319158
40
1.3470384258643482
40
1.3470384521673484
40
2.0205576426485035
40
2.0205576558000029
40
2.6940768555806804
40
2.6940768555806804
40
2.6940768555806804
40
2.6940768555806804
10
416.85040004334297
20
-734.33310714847141
30
0
10
418.10911809190202
20
-731.95185720100835
30
0
10
419.36783618961778
20
-729.57060716055025
30
0
10
423.85796409810155
20
-729.57060713639248
30
0
10
426.37540029271372
20
-732.08804327841381
30
0
10
426.37539979397229
20
-736.57817128155909
30
0
10
423.85796316774048
20
-739.09560707655271
30
0
10
419.36783675643227
20
-739.09560722039009
30
0
10
418.10911838759836
20
-736.71435716118197
30
0
10
416.85040004334297
20
-734.33310714847141
30
0
0
LINE
5
1200
100
AcDbEntity
8
0
100
AcDbLine
10
447.21739999999988
20
-840.65949000000001
30
0
11
433.31736805915671
21
-840.65949000000001
31
0
0
LINE
5
1201
100
AcDbEntity
8
0
100
AcDbLine
10
377.51740004334295
20
-787.15950773850977
30
0
11
377.51740004334295
21
-800.35939164834201
31
0
0
LINE
5
1202
100
AcDbEntity
8
0
100
AcDbLine
10
778.17803135959025
20
-353.50795632425672
30
0
11
778.17803135959025
21
-350.30795632425679
31
0
0
LINE
5
1203
100
AcDbEntity
8
0
100
AcDbLine
10
433.31740004334307
20
-694.85968808222106
30
0
11
447.21740004108887
21
-694.85968808222106
31
0
0
LINE
5
1204
100
AcDbEntity
8
0
100
AcDbLine
10
672.87803135959075
20
-353.50795632425678
30
0
11
692.92799958788055
21
-353.50795632425678
31
0
0
LINE
5
1205
100
AcDbEntity
8
0
100
AcDbLine
10
148.71737375257584
20
-826.90955301661631
30
0
11
94.617399999999918
21
-826.90961603323274
31
0
0
LINE
5
1206
100
AcDbEntity
8
0
100
AcDbLine
10
139.90558412479515
20
-356.75915662068735
30
0
11
143.10558412479509
21
-356.75915662068735
31
0
0
LINE
5
1207
100
AcDbEntity
8
0
100
AcDbLine
10
143.10558412479509
20
-356.75915662068735
30
0
11
197.20558412479508
21
-356.75915662068735
31
0
0
LINE
5
1208
100
AcDbEntity
8
0
100
AcDbLine
10
197.20558412479508
20
-356.75915662068735
30
0
11
189.78533905039197
21
-356.75915662068735
31
0
0
LINE
5
1209
100
AcDbEntity
8
0
100
AcDbLine
10
197.20558412479508
20
-356.75915662068735
30
0
11
71.305652656174274
21
-356.55915662068736
31
0
0
LINE
5
1210
100
AcDbEntity
8
0
100
AcDbLine
10
-269.08060073651023
20
-338.02373322291777
30
0
11
-269.08056060269752
21
-483.8234750398741
31
0
0
LINE
5
1211
100
AcDbEntity
8
0
100
AcDbLine
10
-264.08060073651046
20
-338.02373184658427
30
0
11
-264.08056060269774
21
-483.8234736635406
31
0
0
CIRCLE
5
1212
100
AcDbEntity
8
0
100
AcDbCircle
10
-405.08053498886824
20
-576.87443061467525
30
0
40
22.5
0
CIRCLE
5
1213
100
AcDbEntity
8
0
100
AcDbCircle
10
-321.58058066960388
20
-410.92360413139596
30
0
40
47.5
0
CIRCLE
5
1214
100
AcDbEntity
8
0
100
AcDbCircle
10
-211.5805806696041
20
-410.92360275506246
30
0
40
47.5
0
LINE
5
1215
100
AcDbEntity
8
0
100
AcDbLine
10
-524.4805430632432
20
-338.02373253475315
30
0
11
-524.4805430632432
21
-327.96359757085617
31
0
0
LINE
5
1216
100
AcDbEntity
8
0
100
AcDbLine
10
-211.5805806696041
20
-410.92360275506246
30
0
11
-202.02650761481533
21
-410.92360275506246
31
0
0
LINE
5
1217
100
AcDbEntity
8
0
100
AcDbLine
10
-269.08058066960388
20
-410.92360413139596
30
0
11
-264.0805806696041
21
-410.92360275506246
31
0
0
LINE
5
1218
100
AcDbEntity
8
0
100
AcDbLine
10
-128.08573386562801
20
-693.10660419500186
30
0
11
-159.08573383461805
21
-693.10521761070481
31
0
0
LINE
5
1219
100
AcDbEntity
8
0
100
AcDbLine
10
-159.08573383461805
20
-693.10521761070481
30
0
11
-160.58573383311762
21
-693.10515051791594
31
0
0
LINE
5
1220
100
AcDbEntity
8
0
100
AcDbLine
10
-160.58573383311762
20
-693.10515051791594
30
0
11
-159.08573383461805
21
-693.10521761070481
31
0
0
LINE
5
1221
100
AcDbEntity
8
0
100
AcDbLine
10
-159.08573383461805
20
-693.10521761070481
30
0
11
-157.58573383611855
21
-693.10528470349323
31
0
0
CIRCLE
5
1222
100
AcDbEntity
8
0
100
AcDbCircle
10
-403.6222053835686
20
-976.68627786490492
30
0
40
5.2999999999999883
0
CIRCLE
5
1223
100
AcDbEntity
8
0
100
AcDbCircle
10
-403.6222053835686
20
-976.68627786490492
30
0
40
5.2999999999999883
0
LINE
5
1224
100
AcDbEntity
8
0
100
AcDbLine
10
-403.6222053835686
20
-976.68627786490492
30
0
11
-398.32220538356859
21
-976.68627786490492
31
0
0
LINE
5
1225
100
AcDbEntity
8
0
100
AcDbLine
10
-403.6222053835686
20
-976.68627786490492
30
0
11
-408.92220538356861
21
-976.68627786490492
31
0
0
LINE
5
1226
100
AcDbEntity
8
0
100
AcDbLine
10
-321.58058066960018
20
-576.87443061467343
30
0
11
-313.58058066960018
21
-576.874430615547
31
0
0
LINE
5
1227
100
AcDbEntity
8
0
100
AcDbLine
10
-321.58058066960018
20
-576.87443061467343
30
0
11
-329.58058066960012
21
-576.87443061379986
31
0
0
LINE
5
1228
100
AcDbEntity
8
0
100
AcDbLine
10
-211.58058066960652
20
-576.87443061467388
30
0
11
-203.58058066960652
21
-576.87443061554745
31
0
0
LINE
5
1229
100
AcDbEntity
8
0
100
AcDbLine
10
-211.58058066960652
20
-576.87443061467388
30
0
11
-219.58058066960655
21
-576.8744306138002
31
0
0
LWPOLYLINE
5
1230
100
AcDbEntity
8
0
100
AcDbPolyline
90
4
70
1
43
0.0
10
-439.08053498332714
20
-732.30240460183563
10
-439.08053498005154
20
-702.30240460183563
10
-436.08053498005154
20
-702.30240460216328
10
-436.08053499340474
20
-732.30240460216328
0
LWPOLYLINE
5
1231
100
AcDbEntity
8
0
100
AcDbPolyline
90
4
70
1
43
0.0
10
-439.08053499924347
20
-781.40265631844295
10
-439.08053498951864
20
-751.40265631812076
10
-436.08053499549021
20
-751.40265631909313
10
-436.08053500931993
20
-781.40265631909301
0
LWPOLYLINE
5
1232
100
AcDbEntity
8
0
100
AcDbPolyline
90
5
70
1
43
0.0
10
-371.08053498270044
20
-732.30240460854986
10
-371.08053498005154
20
-702.30240460854986
10
-374.0805349817029
20
-702.30240460893333
10
-374.08053498260949
20
-731.27266854953109
10
-374.08053498270044
20
-732.30240460828497
0
LWPOLYLINE
5
1233
100
AcDbEntity
8
0
100
AcDbPolyline
90
4
70
1
43
0.0
10
-371.08053498806203
20
-781.40265632582464
10
-371.08053498478614
20
-751.40265632576438
10
-374.0805349831698
20
-751.40265632586329
10
-374.08053498400483
20
-781.40265632586329
0
LINE
5
1234
100
AcDbEntity
8
0
100
AcDbLine
10
-374.08053498260949
20
-731.27266854953109
30
0
11
-374.08053498270044
21
-732.30240460828497
31
0
0
LWPOLYLINE
5
1235
100
AcDbEntity
8
0
100
AcDbPolyline
90
4
70
1
43
0.0
10
-162.08748716690948
20
-732.30469933102711
10
-162.08614531552888
20
-702.30469936103646
10
-159.08614531852982
20
-702.30483354617479
10
-159.08748716680563
20
-732.30476409856692
0
LINE
5
1236
100
AcDbEntity
8
0
100
AcDbLine
10
-159.08748716680563
20
-732.30476409856692
30
0
11
-159.08681624266774
21
-717.30479882101235
31
0
0
LWPOLYLINE
5
1237
100
AcDbEntity
8
0
100
AcDbPolyline
90
4
70
1
43
0.0
10
-162.08834148710531
20
-751.40488152665785
10
-159.08834149010639
20
-751.40501571179584
10
-159.08968334459192
20
-781.40508509938491
10
-162.08968334159084
20
-781.4049509142468
0
LINE
5
1238
100
AcDbEntity
8
0
100
AcDbLine
10
-94.086145374878924
20
-702.30753278639452
30
0
11
-94.087303604694171
21
-732.3075327640363
31
0
0
LINE
5
1239
100
AcDbEntity
8
0
100
AcDbLine
10
-94.086145374878924
20
-702.30753278639452
30
0
11
-97.086145372567415
21
-702.30765055324377
31
0
0
LINE
5
1240
100
AcDbEntity
8
0
100
AcDbLine
10
-97.090185263362912
20
-732.30466800153613
30
0
11
-94.087303604694171
21
-732.3075327640363
31
0
0
LINE
5
1241
100
AcDbEntity
8
0
100
AcDbLine
10
-97.090155657599198
20
-751.40491961339478
30
0
11
-94.088040914597585
21
-751.40503551802169
31
0
0
LINE
5
1242
100
AcDbEntity
8
0
100
AcDbLine
10
-97.090109152457273
20
-781.40785823986209
30
0
11
-94.089199257865374
21
-781.40797409797256
31
0
0
LINE
5
1243
100
AcDbEntity
8
0
100
AcDbLine
10
-97.086145372567415
20
-702.30765055324377
30
0
11
-97.087278938236707
21
-732.30466799703106
31
0
0
LINE
5
1244
100
AcDbEntity
8
0
100
AcDbLine
10
-97.088000722978961
20
-751.40491961005455
30
0
11
-97.089134512407028
21
-781.40785827749073
31
0
0
LINE
5
1245
100
AcDbEntity
8
0
100
AcDbLine
10
-94.088040914597585
20
-751.40503551802169
30
0
11
-94.089199257865374
21
-781.40797409797256
31
0
0
CIRCLE
5
1246
100
AcDbEntity
8
0
100
AcDbCircle
10
-378.75764811318675
20
-975.60138537962894
30
0
40
8.0000000000000338
0
LINE
5
1247
100
AcDbEntity
8
0
100
AcDbLine
10
-378.75764811318675
20
-975.60138537962894
30
0
11
-386.7576481131868
21
-975.60138537962894
31
0
0
LINE
5
1248
100
AcDbEntity
8
0
100
AcDbLine
10
-378.75764811318675
20
-975.60138537962894
30
0
11
-370.75764811318669
21
-975.60138537962894
31
0
0
CIRCLE
5
1249
100
AcDbEntity
8
0
100
AcDbCircle
10
-378.75764811318675
20
-975.60138537962894
30
0
40
1.1999999999999744
0
CIRCLE
5
1250
100
AcDbEntity
8
0
100
AcDbCircle
10
-403.6222053835686
20
-976.68627786490492
30
0
40
1.2000000000000455
0
LINE
5
1251
100
AcDbEntity
8
0
100
AcDbLine
10
-9.876273121308401
20
-873.7076783203388
30
0
11
-9.876273121308401
21
-860.00769450635698
31
0
0
LINE
5
1252
100
AcDbEntity
8
0
100
AcDbLine
10
-469.37680269071063
20
-915.60265631892935
30
0
11
-482.5762730034694
21
-915.60255143577615
31
0
0
LINE
5
1253
100
AcDbEntity
8
0
100
AcDbLine
10
-443.37646394607862
20
-912.4026563189293
30
0
11
-443.37712233431461
21
-915.60265631892935
31
0
0
LINE
5
1254
100
AcDbEntity
8
0
100
AcDbLine
10
-299.9762716154072
20
-912.40265632071498
30
0
11
-312.77640933053578
21
-912.40265632071498
31
0
0
LINE
5
1255
100
AcDbEntity
8
0
100
AcDbLine
10
-456.57627300346928
20
-818.10257787446164
30
0
11
-456.57677745871592
21
-821.30240460199946
31
0
0
LINE
5
1256
100
AcDbEntity
8
0
100
AcDbLine
10
-443.37712233431461
20
-818.10240460199952
30
0
11
-456.57627300346928
21
-818.10257787446164
31
0
0
LINE
5
1257
100
AcDbEntity
8
0
100
AcDbLine
10
-503.62680094108555
20
-912.40265631892953
30
0
11
-503.62680094108555
21
-915.60265631892958
31
0
0
LINE
5
1258
100
AcDbEntity
8
0
100
AcDbLine
10
-430.57627300346951
20
-915.60265630472384
30
0
11
-430.57700208370932
21
-912.4026563189293
31
0
0
LINE
5
1259
100
AcDbEntity
8
0
100
AcDbLine
10
-52.176273121308299
20
-818.10777851857267
30
0
11
-65.37627312130823
21
-818.10900373638776
31
0
0
LINE
5
1260
100
AcDbEntity
8
0
100
AcDbLine
10
-9.8762731213078325
20
-901.50767361497697
30
0
11
-6.676273121308185
21
-901.50767361497697
31
0
0
LINE
5
1261
100
AcDbEntity
8
0
100
AcDbLine
10
-273.97627346147829
20
-821.30240460378502
30
0
11
-286.77627254074378
21
-821.30240460378502
31
0
0
LINE
5
1262
100
AcDbEntity
8
0
100
AcDbLine
10
-31.126273121307833
20
-912.40792533242382
30
0
11
-52.17627312130773
21
-912.40792533242382
31
0
0
LINE
5
1263
100
AcDbEntity
8
0
100
AcDbLine
10
-94.086145374878924
20
-827.30753278639452
30
0
11
-94.087303604694171
21
-857.3075327640363
31
0
0
LINE
5
1264
100
AcDbEntity
8
0
100
AcDbLine
10
-469.37680269071063
20
-818.10240460199952
30
0
11
-482.5762730034694
21
-818.10250948515295
31
0
0
LINE
5
1265
100
AcDbEntity
8
0
100
AcDbLine
10
-91.376273121308174
20
-818.10880016356793
30
0
11
-91.376557926534332
21
-821.30767361549385
31
0
0
LINE
5
1266
100
AcDbEntity
8
0
100
AcDbLine
10
-299.97627161540748
20
-821.30240460378502
30
0
11
-312.7764093305359
21
-821.30240460378502
31
0
0
LINE
5
1267
100
AcDbEntity
8
0
100
AcDbLine
10
-482.5762730034694
20
-818.10250948515295
30
0
11
-482.5762730034694
21
-821.30240460199946
31
0
0
LINE
5
1268
100
AcDbEntity
8
0
100
AcDbLine
10
-430.57700208370943
20
-821.30240460199934
30
0
11
-443.37646394607884
21
-821.30240460199946
31
0
0
LINE
5
1269
100
AcDbEntity
8
0
100
AcDbLine
10
-299.97625825731319
20
-915.60265632071491
30
0
11
-299.9762716154072
21
-912.40265632071498
31
0
0
LINE
5
1270
100
AcDbEntity
8
0
100
AcDbLine
10
-221.97641613475213
20
-912.40265632071498
30
0
11
-234.77629033563517
21
-912.40265632071498
31
0
0
LINE
5
1271
100
AcDbEntity
8
0
100
AcDbLine
10
-128.08573386562801
20
-818.10660419500186
30
0
11
-159.08573383461805
21
-818.10521761070481
31
0
0
LINE
5
1272
100
AcDbEntity
8
0
100
AcDbLine
10
-91.376557926534332
20
-821.30767361549385
30
0
11
-104.17544769929052
21
-821.30767361549385
31
0
0
LINE
5
1273
100
AcDbEntity
8
0
100
AcDbLine
10
-78.176433703501118
20
-912.40792533242393
30
0
11
-78.176768121956712
21
-915.60792533242397
31
0
0
LINE
5
1274
100
AcDbEntity
8
0
100
AcDbLine
10
-234.77629033563517
20
-912.40265632071498
30
0
11
-234.77637258178618
21
-915.60265632071491
31
0
0
LINE
5
1275
100
AcDbEntity
8
0
100
AcDbLine
10
-528.0762462174514
20
-860.00240460199939
30
0
11
-524.87618625278958
21
-860.00242547953121
31
0
0
LINE
5
1276
100
AcDbEntity
8
0
100
AcDbLine
10
-443.37646394607884
20
-821.30240460199946
30
0
11
-443.37712233431461
21
-818.10240460199952
31
0
0
LINE
5
1277
100
AcDbEntity
8
0
100
AcDbLine
10
-6.676273121308185
20
-901.50767361497697
30
0
11
-6.676273121308185
21
-915.6076736149771
31
0
0
LINE
5
1278
100
AcDbEntity
8
0
100
AcDbLine
10
-312.77640933053578
20
-912.40265632071498
30
0
11
-312.7779859651298
21
-915.60265632071491
31
0
0
LINE
5
1279
100
AcDbEntity
8
0
100
AcDbLine
10
-94.086145374878924
20
-827.30753278639452
30
0
11
-97.086145372567415
21
-827.30765055324377
31
0
0
LINE
5
1280
100
AcDbEntity
8
0
100
AcDbLine
10
-221.97641613475241
20
-821.30240460378502
30
0
11
-234.77629033563531
21
-821.30240460378502
31
0
0
LINE
5
1281
100
AcDbEntity
8
0
100
AcDbLine
10
-221.97627300347037
20
-818.1024046096029
30
0
11
-221.97641613475241
21
-821.30240460378502
31
0
0
LINE
5
1282
100
AcDbEntity
8
0
100
AcDbLine
10
-91.376273121307889
20
-915.60679878434985
30
0
11
-91.37655792653419
21
-912.40792533242393
31
0
0
LINE
5
1283
100
AcDbEntity
8
0
100
AcDbLine
10
-430.57627300346962
20
-818.10240461620515
30
0
11
-430.57700208370943
21
-821.30240460199934
31
0
0
LINE
5
1284
100
AcDbEntity
8
0
100
AcDbLine
10
-234.77637258178618
20
-915.60265632071491
30
0
11
-247.97627300346988
21
-915.60188654297679
31
0
0
LINE
5
1285
100
AcDbEntity
8
0
100
AcDbLine
10
-247.97627300346988
20
-915.60188654297679
30
0
11
-247.97630942941794
21
-912.40265632071498
31
0
0
LINE
5
1286
100
AcDbEntity
8
0
100
AcDbLine
10
-469.37638774609479
20
-821.30240460199946
30
0
11
-469.37680269071063
21
-818.10240460199952
31
0
0
LINE
5
1287
100
AcDbEntity
8
0
100
AcDbLine
10
-6.676273121308185
20
-887.80767361497681
30
0
11
-6.6762731213084692
21
-873.7076836973232
31
0
0
LINE
5
1288
100
AcDbEntity
8
0
100
AcDbLine
10
-247.97630942941794
20
-821.30240460378502
30
0
11
-260.77627588940032
21
-821.30240460378502
31
0
0
LINE
5
1289
100
AcDbEntity
8
0
100
AcDbLine
10
-6.6762731213084692
20
-845.90776429286723
30
0
11
-9.876273121308401
21
-845.90771593117802
31
0
0
LINE
5
1290
100
AcDbEntity
8
0
100
AcDbLine
10
-430.57700208370932
20
-912.4026563189293
30
0
11
-443.37646394607862
21
-912.4026563189293
31
0
0
LINE
5
1291
100
AcDbEntity
8
0
100
AcDbLine
10
-234.77637258178618
20
-818.10240460378498
30
0
11
-247.97627300346988
21
-818.10317438152333
31
0
0
LINE
5
1292
100
AcDbEntity
8
0
100
AcDbLine
10
-78.176768121956712
20
-915.60792533242397
30
0
11
-91.376273121307889
21
-915.60679878434985
31
0
0
LINE
5
1293
100
AcDbEntity
8
0
100
AcDbLine
10
-6.6763598976366723
20
-832.20767361549383
30
0
11
-6.6762731213103166
21
-818.10792561549374
31
0
0
LINE
5
1294
100
AcDbEntity
8
0
100
AcDbLine
10
-503.62680094108555
20
-915.60265631892958
30
0
11
-528.07627300346905
21
-915.60240466843925
31
0
0
LINE
5
1295
100
AcDbEntity
8
0
100
AcDbLine
10
-312.7764093305359
20
-821.30240460378502
30
0
11
-312.77798596513009
21
-818.10240460378498
31
0
0
LINE
5
1296
100
AcDbEntity
8
0
100
AcDbLine
10
-325.97625367884905
20
-821.30240460378502
30
0
11
-338.77627300346973
21
-821.30240460378502
31
0
0
LINE
5
1297
100
AcDbEntity
8
0
100
AcDbLine
10
-312.77798596513009
20
-818.10240460378498
30
0
11
-325.97617338437647
21
-818.10240460378498
31
0
0
LINE
5
1298
100
AcDbEntity
8
0
100
AcDbLine
10
-482.5762730034694
20
-821.30240460199946
30
0
11
-503.62680094108555
21
-821.30240460199946
31
0
0
LWPOLYLINE
5
1299
100
AcDbEntity
8
0
100
AcDbPolyline
90
4
70
1
43
0.0
10
-371.08053498806203
20
-906.40265632582464
10
-374.08053498400483
20
-906.40265632586329
10
-374.0805349831698
20
-876.40265632586329
10
-371.08053498478614
20
-876.40265632576438
0
LINE
5
1300
100
AcDbEntity
8
0
100
AcDbLine
10
-260.77628773393116
20
-818.10240460378498
30
0
11
-273.97627300346983
21
-818.102405808345
31
0
0
LINE
5
1301
100
AcDbEntity
8
0
100
AcDbLine
10
-159.08573383461805
20
-818.10521761070481
30
0
11
-160.58573383311762
21
-818.10515051791594
31
0
0
LINE
5
1302
100
AcDbEntity
8
0
100
AcDbLine
10
-524.87618625278958
20
-845.90244689760857
30
0
11
-528.07627300346894
21
-845.90249523916191
31
0
0
LINE
5
1303
100
AcDbEntity
8
0
100
AcDbLine
10
-286.77627254074366
20
-912.40265632071498
30
0
11
-286.77627300346967
21
-915.60265511401485
31
0
0
LINE
5
1304
100
AcDbEntity
8
0
100
AcDbLine
10
-159.08573383461805
20
-818.10521761070481
30
0
11
-157.58573383611855
21
-818.10528470349323
31
0
0
LWPOLYLINE
5
1305
100
AcDbEntity
8
0
100
AcDbPolyline
90
4
70
1
43
0.0
10
-436.08053499340474
20
-857.30240460216328
10
-439.08053498332714
20
-857.30240460183563
10
-439.08053498005154
20
-827.30240460183563
10
-436.08053498005154
20
-827.30240460216328
0
LWPOLYLINE
5
1306
100
AcDbEntity
8
0
100
AcDbPolyline
90
4
70
1
43
0.0
10
-159.08614531852982
20
-827.30483354617479
10
-162.08614531552888
20
-827.30469936103646
10
-162.08748716690948
20
-857.30469933102711
10
-159.08748716680563
20
-857.30476409856692
0
LINE
5
1307
100
AcDbEntity
8
0
100
AcDbLine
10
-247.97630942941794
20
-912.40265632071498
30
0
11
-260.77627588940032
21
-912.40265632071498
31
0
0
LWPOLYLINE
5
1308
100
AcDbEntity
8
0
100
AcDbPolyline
90
4
70
1
43
0.0
10
-436.08053500931993
20
-906.40265631909301
10
-436.08053499549021
20
-876.40265631909313
10
-439.08053498951864
20
-876.40265631812076
10
-439.08053499924347
20
-906.40265631844295
0
LWPOLYLINE
5
1309
100
AcDbEntity
8
0
100
AcDbPolyline
90
5
70
1
43
0.0
10
-371.08053498005154
20
-827.30240460854986
10
-374.0805349817029
20
-827.30240460893333
10
-374.08053498260949
20
-856.27266854953109
10
-374.08053498270044
20
-857.30240460828497
10
-371.08053498270044
20
-857.30240460854986
0
LINE
5
1310
100
AcDbEntity
8
0
100
AcDbLine
10
-97.090155657599198
20
-876.40491961339478
30
0
11
-94.088040914597585
21
-876.40503551802169
31
0
0
LINE
5
1311
100
AcDbEntity
8
0
100
AcDbLine
10
-469.37638774609479
20
-912.4026563189293
30
0
11
-469.37680269071063
21
-915.60265631892935
31
0
0
LINE
5
1312
100
AcDbEntity
8
0
100
AcDbLine
10
-286.77627300346984
20
-818.10240581048538
30
0
11
-299.97625825731348
21
-818.10240460378498
31
0
0
LINE
5
1313
100
AcDbEntity
8
0
100
AcDbLine
10
-160.58573383311762
20
-818.10515051791594
30
0
11
-159.08573383461805
21
-818.10521761070481
31
0
0
LINE
5
1314
100
AcDbEntity
8
0
100
AcDbLine
10
-528.07627300346678
20
-818.10265660199934
30
0
11
-528.07618625278963
21
-832.20240460199932
31
0
0
LINE
5
1315
100
AcDbEntity
8
0
100
AcDbLine
10
-299.97625825731348
20
-818.10240460378498
30
0
11
-299.97627161540748
21
-821.30240460378502
31
0
0
LINE
5
1316
100
AcDbEntity
8
0
100
AcDbLine
10
-97.090185263362912
20
-857.30466800153613
30
0
11
-94.087303604694171
21
-857.3075327640363
31
0
0
LINE
5
1317
100
AcDbEntity
8
0
100
AcDbLine
10
-31.126273121308685
20
-818.10922405627196
30
0
11
-31.126273121308685
21
-821.30767361549385
31
0
0
LINE
5
1318
100
AcDbEntity
8
0
100
AcDbLine
10
-97.090109152457273
20
-906.40785823986209
30
0
11
-94.089199257865374
21
-906.40797409797256
31
0
0
LINE
5
1319
100
AcDbEntity
8
0
100
AcDbLine
10
-97.086145372567415
20
-827.30765055324377
30
0
11
-97.087278938236707
21
-857.30466799703106
31
0
0
LINE
5
1320
100
AcDbEntity
8
0
100
AcDbLine
10
-6.6762731213103166
20
-818.10792561549374
30
0
11
-31.126273121308685
21
-818.10922405627196
31
0
0
LINE
5
1321
100
AcDbEntity
8
0
100
AcDbLine
10
-430.57627300346962
20
-818.10240461620515
30
0
11
-338.77627300346973
21
-818.10240460975228
31
0
0
LINE
5
1322
100
AcDbEntity
8
0
100
AcDbLine
10
-528.07627300346894
20
-873.70240711951226
30
0
11
-528.07627300346894
21
-887.80240460199911
31
0
0
LINE
5
1323
100
AcDbEntity
8
0
100
AcDbLine
10
-9.876273121308401
20
-845.90771593117802
30
0
11
-9.876273121308401
21
-832.20775712377758
31
0
0
LINE
5
1324
100
AcDbEntity
8
0
100
AcDbLine
10
-6.6762731213084692
20
-873.7076836973232
30
0
11
-9.876273121308401
21
-873.7076783203388
31
0
0
LINE
5
1325
100
AcDbEntity
8
0
100
AcDbLine
10
-9.876273121308401
20
-860.00769450635698
30
0
11
-6.6762999215880825
21
-860.00767361549367
31
0
0
LINE
5
1326
100
AcDbEntity
8
0
100
AcDbLine
10
-31.126273121308685
20
-821.30767361549385
30
0
11
-52.176273121308299
21
-821.30767361549385
31
0
0
LINE
5
1327
100
AcDbEntity
8
0
100
AcDbLine
10
-273.97627300346983
20
-818.102405808345
30
0
11
-273.97627346147829
21
-821.30240460378502
31
0
0
LINE
5
1328
100
AcDbEntity
8
0
100
AcDbLine
10
-260.77628773393116
20
-915.60265632071491
30
0
11
-273.97627300346983
21
-915.60265511615523
31
0
0
LINE
5
1329
100
AcDbEntity
8
0
100
AcDbLine
10
-52.17627312130773
20
-912.40792533242382
30
0
11
-52.17627312130773
21
-915.60782042934511
31
0
0
LINE
5
1330
100
AcDbEntity
8
0
100
AcDbLine
10
-52.176273121308299
20
-821.30767361549385
30
0
11
-52.176273121308299
21
-818.10777851857267
31
0
0
LINE
5
1331
100
AcDbEntity
8
0
100
AcDbLine
10
-221.97627300346994
20
-915.60265631489733
30
0
11
-221.97641613475213
21
-912.40265632071498
31
0
0
LINE
5
1332
100
AcDbEntity
8
0
100
AcDbLine
10
-456.57627300346928
20
-915.60248304646711
30
0
11
-456.57677745871592
21
-912.4026563189293
31
0
0
LINE
5
1333
100
AcDbEntity
8
0
100
AcDbLine
10
-104.17544769929052
20
-821.30767361549385
30
0
11
-104.17627312130818
21
-818.10767362993272
31
0
0
LINE
5
1334
100
AcDbEntity
8
0
100
AcDbLine
10
-6.676273121308185
20
-915.6076736149771
30
0
11
-31.126273121307833
21
-915.60637489164583
31
0
0
LINE
5
1335
100
AcDbEntity
8
0
100
AcDbLine
10
-52.17627312130773
20
-915.60782042934511
30
0
11
-65.376273121308088
21
-915.60659521152979
31
0
0
LINE
5
1336
100
AcDbEntity
8
0
100
AcDbLine
10
-65.37627312130823
20
-821.30767361549385
30
0
11
-78.176433703501118
21
-821.30767361549385
31
0
0
LINE
5
1337
100
AcDbEntity
8
0
100
AcDbLine
10
-9.8762731213081167
20
-887.80767361497715
30
0
11
-9.8762731213078325
21
-901.50767361497697
31
0
0
LINE
5
1338
100
AcDbEntity
8
0
100
AcDbLine
10
-9.876273121308401
20
-832.20775712377758
30
0
11
-6.6763598976366723
21
-832.20767361549383
31
0
0
LINE
5
1339
100
AcDbEntity
8
0
100
AcDbLine
10
-528.07618625278963
20
-832.20240460199932
30
0
11
-524.87618625278958
21
-832.20240460199932
31
0
0
LINE
5
1340
100
AcDbEntity
8
0
100
AcDbLine
10
-456.57677745871592
20
-821.30240460199946
30
0
11
-469.37638774609479
21
-821.30240460199946
31
0
0
LINE
5
1341
100
AcDbEntity
8
0
100
AcDbLine
10
-234.77629033563531
20
-821.30240460378502
30
0
11
-234.77637258178618
21
-818.10240460378498
31
0
0
LINE
5
1342
100
AcDbEntity
8
0
100
AcDbLine
10
-78.176433703501118
20
-821.30767361549385
30
0
11
-78.176768121956997
21
-818.10767361549392
31
0
0
LINE
5
1343
100
AcDbEntity
8
0
100
AcDbLine
10
-528.07627300346894
20
-901.50240460199927
30
0
11
-528.07627300346894
21
-915.6024046019993
31
0
0
LINE
5
1344
100
AcDbEntity
8
0
100
AcDbLine
10
-286.77627300346967
20
-915.60265511401485
30
0
11
-299.97625825731319
21
-915.60265632071491
31
0
0
LINE
5
1345
100
AcDbEntity
8
0
100
AcDbLine
10
-503.62680094108555
20
-818.10240460199952
30
0
11
-528.07627300346678
21
-818.10265660199934
31
0
0
LINE
5
1346
100
AcDbEntity
8
0
100
AcDbLine
10
-104.17544769929023
20
-912.40792533242393
30
0
11
-104.17627312130804
21
-915.60792531798506
31
0
0
LINE
5
1347
100
AcDbEntity
8
0
100
AcDbLine
10
-6.676273121308185
20
-887.80767361497681
30
0
11
-9.8762731213081167
21
-887.80767361497715
31
0
0
LINE
5
1348
100
AcDbEntity
8
0
100
AcDbLine
10
-260.77627588940032
20
-912.40265632071498
30
0
11
-260.77628773393116
21
-915.60265632071491
31
0
0
LINE
5
1349
100
AcDbEntity
8
0
100
AcDbLine
10
-260.77627588940032
20
-821.30240460378502
30
0
11
-260.77628773393116
21
-818.10240460378498
31
0
0
LINE
5
1350
100
AcDbEntity
8
0
100
AcDbLine
10
-443.37712233431461
20
-915.60265631892935
30
0
11
-456.57627300346928
21
-915.60248304646711
31
0
0
LINE
5
1351
100
AcDbEntity
8
0
100
AcDbLine
10
-524.87627300346901
20
-901.50240460199927
30
0
11
-528.07627300346894
21
-901.50240460199927
31
0
0
LINE
5
1352
100
AcDbEntity
8
0
100
AcDbLine
10
-65.376273121308088
20
-912.40792533242382
30
0
11
-78.176433703501118
21
-912.40792533242393
31
0
0
LINE
5
1353
100
AcDbEntity
8
0
100
AcDbLine
10
-31.126273121307833
20
-915.60637489164583
30
0
11
-31.126273121307833
21
-912.40792533242382
31
0
0
LINE
5
1354
100
AcDbEntity
8
0
100
AcDbLine
10
-247.97627300346988
20
-818.10317438152333
30
0
11
-247.97630942941794
21
-821.30240460378502
31
0
0
LINE
5
1355
100
AcDbEntity
8
0
100
AcDbLine
10
-456.57677745871592
20
-912.4026563189293
30
0
11
-469.37638774609479
21
-912.4026563189293
31
0
0
LWPOLYLINE
5
1356
100
AcDbEntity
8
0
100
AcDbPolyline
90
4
70
1
43
0.0
10
-162.08968334159084
20
-906.4049509142468
10
-162.08834148710531
20
-876.40488152665785
10
-159.08834149010639
20
-876.40501571179584
10
-159.08968334459192
20
-906.40508509938491
0
LINE
5
1357
100
AcDbEntity
8
0
100
AcDbLine
10
-97.088000722978961
20
-876.40491961005455
30
0
11
-97.089134512407028
21
-906.40785827749073
31
0
0
LINE
5
1358
100
AcDbEntity
8
0
100
AcDbLine
10
-325.97625367884871
20
-912.40265632071498
30
0
11
-338.77627300346944
21
-912.40265632071498
31
0
0
LINE
5
1359
100
AcDbEntity
8
0
100
AcDbLine
10
-528.07627300346894
20
-887.80240460199911
30
0
11
-524.87627300346901
21
-887.80240460199911
31
0
0
LINE
5
1360
100
AcDbEntity
8
0
100
AcDbLine
10
-374.08053498270044
20
-857.30240460828497
30
0
11
-374.08053498260949
21
-856.27266854953109
31
0
0
LINE
5
1361
100
AcDbEntity
8
0
100
AcDbLine
10
-524.87618625278958
20
-832.20240460199932
30
0
11
-524.87618625278958
21
-845.90244689760857
31
0
0
LINE
5
1362
100
AcDbEntity
8
0
100
AcDbLine
10
-94.088040914597585
20
-876.40503551802169
30
0
11
-94.089199257865374
21
-906.40797409797256
31
0
0
LINE
5
1363
100
AcDbEntity
8
0
100
AcDbLine
10
-524.87627300346901
20
-887.80240460199911
30
0
11
-524.87627300346901
21
-901.50240460199927
31
0
0
LINE
5
1364
100
AcDbEntity
8
0
100
AcDbLine
10
-159.08748716680563
20
-857.30476409856692
30
0
11
-159.08681624266774
21
-842.30479882101235
31
0
0
LINE
5
1365
100
AcDbEntity
8
0
100
AcDbLine
10
-528.07627300346894
20
-845.90249523916191
30
0
11
-528.0762462174514
21
-860.00240460199939
31
0
0
LINE
5
1366
100
AcDbEntity
8
0
100
AcDbLine
10
-325.97617338437647
20
-818.10240460378498
30
0
11
-325.97625367884905
21
-821.30240460378502
31
0
0
LINE
5
1367
100
AcDbEntity
8
0
100
AcDbLine
10
-524.87618625278958
20
-860.00242547953121
30
0
11
-524.87618625278958
21
-873.70240577680022
31
0
0
LINE
5
1368
100
AcDbEntity
8
0
100
AcDbLine
10
-325.97617338437647
20
-915.60265632071491
30
0
11
-325.97625367884871
21
-912.40265632071498
31
0
0
LINE
5
1369
100
AcDbEntity
8
0
100
AcDbLine
10
-338.77627300346944
20
-912.40265632071498
30
0
11
-338.77627300346944
21
-915.60265631474806
31
0
0
LINE
5
1370
100
AcDbEntity
8
0
100
AcDbLine
10
-286.77627254074378
20
-821.30240460378502
30
0
11
-286.77627300346984
21
-818.10240581048538
31
0
0
LINE
5
1371
100
AcDbEntity
8
0
100
AcDbLine
10
-338.77627300346973
20
-821.30240460378502
30
0
11
-338.77627300346973
21
-818.10240460975228
31
0
0
LINE
5
1372
100
AcDbEntity
8
0
100
AcDbLine
10
-312.7779859651298
20
-915.60265632071491
30
0
11
-325.97617338437647
21
-915.60265632071491
31
0
0
LINE
5
1373
100
AcDbEntity
8
0
100
AcDbLine
10
-65.37627312130823
20
-818.10900373638776
30
0
11
-65.37627312130823
21
-821.30767361549385
31
0
0
LINE
5
1374
100
AcDbEntity
8
0
100
AcDbLine
10
-221.97627300346994
20
-915.60265631489733
30
0
11
-104.17627312130804
21
-915.60792531798506
31
0
0
LINE
5
1375
100
AcDbEntity
8
0
100
AcDbLine
10
-524.87618625278958
20
-873.70240577680022
30
0
11
-528.07627300346894
21
-873.70240711951226
31
0
0
LINE
5
1376
100
AcDbEntity
8
0
100
AcDbLine
10
-221.97627300347037
20
-818.1024046096029
30
0
11
-104.17627312130818
21
-818.10767362993272
31
0
0
LINE
5
1377
100
AcDbEntity
8
0
100
AcDbLine
10
-482.5762730034694
20
-915.60255143577615
30
0
11
-482.5762730034694
21
-912.40265631892953
31
0
0
LINE
5
1378
100
AcDbEntity
8
0
100
AcDbLine
10
-6.6762999215880825
20
-860.00767361549367
30
0
11
-6.6762731213084692
21
-845.90776429286723
31
0
0
LINE
5
1379
100
AcDbEntity
8
0
100
AcDbLine
10
-430.57627300346951
20
-915.60265630472384
30
0
11
-338.77627300346944
21
-915.60265631474806
31
0
0
LINE
5
1380
100
AcDbEntity
8
0
100
AcDbLine
10
-65.376273121308088
20
-915.60659521152979
30
0
11
-65.376273121308088
21
-912.40792533242382
31
0
0
LINE
5
1381
100
AcDbEntity
8
0
100
AcDbLine
10
-273.97627346147829
20
-912.40265632071498
30
0
11
-286.77627254074366
21
-912.40265632071498
31
0
0
LINE
5
1382
100
AcDbEntity
8
0
100
AcDbLine
10
-78.176768121956997
20
-818.10767361549392
30
0
11
-91.376273121308174
21
-818.10880016356793
31
0
0
LINE
5
1383
100
AcDbEntity
8
0
100
AcDbLine
10
-273.97627300346983
20
-915.60265511615523
30
0
11
-273.97627346147829
21
-912.40265632071498
31
0
0
LINE
5
1384
100
AcDbEntity
8
0
100
AcDbLine
10
-503.62680094108555
20
-821.30240460199946
30
0
11
-503.62680094108555
21
-818.10240460199952
31
0
0
LINE
5
1385
100
AcDbEntity
8
0
100
AcDbLine
10
-91.37655792653419
20
-912.40792533242393
30
0
11
-104.17544769929023
21
-912.40792533242393
31
0
0
LINE
5
1386
100
AcDbEntity
8
0
100
AcDbLine
10
-482.5762730034694
20
-912.40265631892953
30
0
11
-503.62680094108555
21
-912.40265631892953
31
0
0
ENDSEC
0
SECTION
2
OBJECTS
0
DICTIONARY
5
C
100
AcDbDictionary
3
ACAD_GROUP
350
D
3
ACAD_MLINESTYLE
350
17
0
DICTIONARY
5
D
100
AcDbDictionary
0
DICTIONARY
5
1A
330
C
100
AcDbDictionary
0
DICTIONARY
5
17
100
AcDbDictionary
0
ENDSEC
0
EOF
